PrimaNota.ru - самый крупный в мире бесплатный архив песенных текстов, аккордов, табулатур и нот


Misc Computer Games - Battlefield Heroes Theme Song - таба, видео

Регистрация Запомнить меня
Войти через:  Facebook Google Twitter Vk Yandex Mail.ru

Misc Computer Games - Battlefield Heroes Theme Song - таба, видео

Печатать
Просмотров: 136
Уроки эстрадного вокала в Санкт-Петербурге
E|-----------------------0---|------------------------------|-----------------------0---|
B|---------0---1----1--------|-1----1--------1--------------|---------0---1----1--------|
G|-0---2---------------------|----------3-------3---0---3---|-3---3---------------------|
D|---------------------------|------------------------------|---------------------------|
A|---------------------------|------------------------------|---------------------------|
E|---------------------------|------------------------------|---------------------------|


E|------------------------------|-----------------------0---|----------1----0--------|
B|-1----1---3----1--------------|---------0---1----1--------|-1----1-------------3---|
G|------------------3---2---0---|-0---2---------------------|------------------------|
D|------------------------------|---------------------------|------------------------|
A|------------------------------|---------------------------|------------------------|
E|------------------------------|---------------------------|------------------------|


E|------------------------|-----------------------|
B|-3----------------------|---------0---1-----1---|
G|-----3----0----0----2---|-0---2-----------------|
D|------------------------|-----------------------|
A|------------------------|-----------------------|
E|------------------------|-----------------------|
Добавлено: 10.09.2015
Другие материалы по этой песне:
  • Аккорды и текст

Страница создана 10.09.2015
http://primanota.ru/misc-computer-games/battlefield-heroes-theme-song-chords.htm
Привет, Гость.
Предлагаем пройти революционный курс по гитаре.
Подарок от PrimaNota.Ru, забирай!