PrimaNota.ru - самый крупный в мире бесплатный архив песенных текстов, аккордов, табулатур и нот


Lamb Of God - Choke Sermon - текст песни, таба, бас-таба, видео

Регистрация Запомнить меня
Войти через:  Facebook Google Twitter Vk Yandex Mail.ru

Lamb Of God - Choke Sermon - текст песни, таба, бас-таба, видео

Печатать
Просмотров: 235
Уроки эстрадного вокала в Санкт-Петербурге
Main song. Solo is at bottom of tab.
                            PM PM PM PM PM PM PM PM PM           
                            |--3--|  |--3--|  |--3--|  |--3--|   
     H.            Q        E  E  E  E  E  E  E  E  E  E  E  E   
E||----------------------|--------------------------------------|
B||----------------------|--------------------------------------|
G||----------------------|--------------------------------------|
D||----------------------|--------------------------------------|
A||----------------------|-----------------------------5--3--5--|
D||---------------12\----|--0--0--0--0--0--0--0--0--0-----------|


  PM PM PM PM PM PM PM PM PM             PM PM PM PM PM PM PM PM PM           
  |--3--|  |--3--|  |--3--|  |--3--|     |--3--|  |--3--|  |--3--|  |--3--|   
  E  E  E  E  E  E  E  E  E  E  E  E     E  E  E  E  E  E  E  E  E  E  E  E   
--------------------------------------|--------------------------------------|
--------------------------------------|--------------------------------------|
--------------------------------------|--------------------------------------|
--------------------------------------|--------------------------------------|
-----------------------------6--5--6--|-----------------------------8--6--8--|
--0--0--0--0--0--0--0--0--0-----------|--0--0--0--0--0--0--0--0--0-----------|


  PM PM PM       PM PM PM           PM PM PM PM PM PM PM PM PM           
  |--3--|        |--3--|            |--3--|  |--3--|  |--3--|  |--3--|   
  E  E  E  E.  S E  E  E   E.  S    E  E  E  E  E  E  E  E  E  E  E  E   
---------------------------------|--------------------------------------|
---------------------------------|--------------------------------------|
---------------------------------|--------------------------------------|
---------------------------------|--------------------------------------|
-----------7---7----------10---5-|-----------------------------5--3--5--|
--0--0--0--7---7-0--0--0--10---5-|--0--0--0--0--0--0--0--0--0-----------|


  PM PM PM PM PM PM PM PM PM             PM PM PM PM PM PM PM PM PM           
  |--3--|  |--3--|  |--3--|  |--3--|     |--3--|  |--3--|  |--3--|  |--3--|   
  E  E  E  E  E  E  E  E  E  E  E  E     E  E  E  E  E  E  E  E  E  E  E  E   
--------------------------------------|--------------------------------------|
--------------------------------------|--------------------------------------|
--------------------------------------|--------------------------------------|
--------------------------------------|--------------------------------------|
-----------------------------6--5--6--|-----------------------------8--6--8--|
--0--0--0--0--0--0--0--0--0-----------|--0--0--0--0--0--0--0--0--0-----------|


  PM PM PM          PM PM PM             PM PM PM PM PM PM PM PM PM           
  |--3--|  |--3--|  |--3--|  |--3--|     |--3--|  |--3--|  |--3--|  |--3--|   
  E  E  E  E  E  E  E  E  E  E  E  E     E  E  E  E  E  E  E  E  E  E  E  E   
--------------------------------------|--------------------------------------|
--------------------------------------|--------------------------------------|
--------------------------------------|--------------------------------------|
-----------------------------7--5-----|--------------------------------------|
-----------6--5--6-----------------6--|-----------------------------5--6--5--|
--0--0--0-----------0--0--0-----------|--0--0--0--0--0--0--0--0--0-----------|


  PM PM PM PM PM PM PM PM PM             PM PM PM PM PM PM PM PM PM           
  |--3--|  |--3--|  |--3--|  |--3--|     |--3--|  |--3--|  |--3--|  |--3--|   
  E  E  E  E  E  E  E  E  E  E  E  E     E  E  E  E  E  E  E  E  E  E  E  E   
--------------------------------------|--------------------------------------|
--------------------------------------|--------------------------------------|
--------------------------------------|--------------------------------------|
--------------------------------------|--------------------------------------|
-----------------------------6--5--6--|-----------------------------8--6--8--|
--0--0--0--0--0--0--0--0--0-----------|--0--0--0--0--0--0--0--0--0-----------|


  PM PM PM       PM PM PM           PM PM PM PM PM PM PM PM PM           
  |--3--|        |--3--|            |--3--|  |--3--|  |--3--|  |--3--|   
  E  E  E  E.  S E  E  E   E.  S    E  E  E  E  E  E  E  E  E  E  E  E   
---------------------------------|--------------------------------------|
---------------------------------|--------------------------------------|
---------------------------------|--------------------------------------|
---------------------------------|--------------------------------------|
-----------7---7----------10---5-|-----------------------------5--3--5--|
--0--0--0--7---7-0--0--0--10---5-|--0--0--0--0--0--0--0--0--0-----------|


  PM PM PM PM PM PM PM PM PM             PM PM PM PM PM PM PM PM PM           
  |--3--|  |--3--|  |--3--|  |--3--|     |--3--|  |--3--|  |--3--|  |--3--|   
  E  E  E  E  E  E  E  E  E  E  E  E     E  E  E  E  E  E  E  E  E  E  E  E   
--------------------------------------|--------------------------------------|
--------------------------------------|--------------------------------------|
--------------------------------------|--------------------------------------|
--------------------------------------|--------------------------------------|
-----------------------------6--5--6--|-----------------------------8--6--8--|
--0--0--0--0--0--0--0--0--0-----------|--0--0--0--0--0--0--0--0--0-----------|


  PM PM PM          PM PM PM             PM PM PM PM PM PM PM PM PM           
  |--3--|  |--3--|  |--3--|  |--3--|     |--3--|  |--3--|  |--3--|  |--3--|   
  E  E  E  E  E  E  E  E  E  E  E  E     E  E  E  E  E  E  E  E  E  E  E  E   
--------------------------------------|--------------------------------------|
--------------------------------------|--------------------------------------|
--------------------------------------|--------------------------------------|
-----------------------------7--5-----|--------------------------------------|
-----------6--5--6-----------------6--|-----------------------------5--6--5--|
--0--0--0-----------0--0--0-----------|--0--0--0--0--0--0--0--0--0-----------|


  PM PM PM PM PM PM PM PM PM             PM PM PM PM PM PM PM PM PM           
  |--3--|  |--3--|  |--3--|  |--3--|     |--3--|  |--3--|  |--3--|  |--3--|   
  E  E  E  E  E  E  E  E  E  E  E  E     E  E  E  E  E  E  E  E  E  E  E  E   
--------------------------------------|--------------------------------------|
--------------------------------------|--------------------------------------|
--------------------------------------|--------------------------------------|
--------------------------------------|--------------------------------------|
-----------------------------6--5--6--|-----------------------------8--6--8--|
--0--0--0--0--0--0--0--0--0-----------|--0--0--0--0--0--0--0--0--0-----------|


  |--3--|  |--3--|  |--3--|  |--3--|     |--3--|  |--3--|  |--3--|  |--3--|   
  E  E  E  E  E  E  E  E  E  E  E  E     E  E  E  E  E  E  E  E  E  E  E  E   
--------------------------------------|--------------------------------------|
--------------------------------------|--------------------------------------|
--------------------------------------|--------------------------------------|
-----------8--------8--6--5--9--7--6--|--------------------------------------|
--5--6--8-----8--6--------------------|--3--3--3--3--3--3--3--3--3--3--3--3--|
--------------------------------------|--3--3--3--3--3--3--3--3--3--3--3--3--|


  |--3--|  |--3--|  |--3--|  |--3--|     |--3--|  |--3--|  |--3--|  |--3--|   
  E  E  E  E  E  E  E  E  E  E  E  E     E  E  E  E  E  E  E  E  E  E  E  E   
--------------------------------------|--------------------------------------|
--------------------------------------|--------------------------------------|
--------------------------------------|--------------------------------------|
--------------------------------------|--------------------------------------|
--3--3--3--3--3--3--3--3--3--3--3--3--|--2--2--2--2--2--2--2--2--2--2--2--2--|
--3--3--3--3--3--3--3--3--3--3--3--3--|--2--2--2--2--2--2--2--2--2--2--2--2--|


  |----3----|      |----3----|    |----3----|   
  Q    Q    Q      E    E    E    E    E    E   
-----------------------------------------------|
-----------------------------------------------|
-----------------------------------------------|
-----------------------------------------------|
--1----1----1------1----1----1----1----1----1--|
--1----1----1----<>1--<>1--<>1--<>1--<>1--<>1--|


                                                                    PH     
  |--3-|  |--3--|  |--3--|  |--3--|     |--3-|  |--3--|  |--3--|           
  Q    E  E  E  E  E  E  E  E  E  E     Q    E  E  E  E  E  E  E    Q      
-------------------------------------|------------------------------------|
-------------------------------------|------------------------------------|
-------------------------------------|------------------------------------|
-------------------3-----------------|-------------------3--------<>5~----|
----------5--3--5-----5--3--0--3--5--|----------5--3--5-----5--3----------|
--0----0-----------------------------|--0----0----------------------------|


                                        PM PM PM      PM PM PM       
  |--3-|  |--3--|  |--3--|  |--3--|     |--3--|       |--3--|        
  Q    E  E  E  E  E  E  E  E  E  E     E  E  E  Q    E  E  E  Q     
-------------------------------------|------------------------------|
-------------------------------------|------------------------------|
-------------------------------------|------------------------------|
-------------------3-----------------|------------------------------|
----------5--3--5-----5--3--0--3--5--|-----------6-------------3----|
--0----0-----------------------------|--0--0--0--6----0--0--0--3----|


                                                                    PH     
  |--3-|  |--3--|  |--3--|  |--3--|     |--3-|  |--3--|  |--3--|           
  Q    E  E  E  E  E  E  E  E  E  E     Q    E  E  E  E  E  E  E    Q      
-------------------------------------|------------------------------------|
-------------------------------------|------------------------------------|
-------------------------------------|------------------------------------|
-------------------3-----------------|-------------------3--------<>5~----|
----------5--3--5-----5--3--0--3--5--|----------5--3--5-----5--3----------|
--0----0-----------------------------|--0----0----------------------------|


                                        PM PM PM      PM PM PM       
  |--3-|  |--3--|  |--3--|  |--3--|     |--3--|       |--3--|        
  Q    E  E  E  E  E  E  E  E  E  E     E  E  E  Q    E  E  E  Q     
-------------------------------------|------------------------------|
-------------------------------------|------------------------------|
-------------------------------------|------------------------------|
-------------------3-----------------|------------------------------|
----------5--3--5-----5--3--0--3--5--|-----------6-------------3----|
--0----0-----------------------------|--0--0--0--6----0--0--0--3----|


  PM PM PM PM PM PM PM PM PM             PM PM PM PM PM PM PM PM PM           
  |--3--|  |--3--|  |--3--|  |--3--|     |--3--|  |--3--|  |--3--|  |--3--|   
  E  E  E  E  E  E  E  E  E  E  E  E     E  E  E  E  E  E  E  E  E  E  E  E   
--------------------------------------|--------------------------------------|
--------------------------------------|--------------------------------------|
--------------------------------------|--------------------------------------|
--------------------------------------|--------------------------------------|
-----------------------------5--3--5--|-----------------------------6--5--6--|
--0--0--0--0--0--0--0--0--0-----------|--0--0--0--0--0--0--0--0--0-----------|


  PM PM PM PM PM PM PM PM PM                                                  
  |--3--|  |--3--|  |--3--|  |--3--|     |--3--|  |--3--|  |--3--|  |--3--|   
  E  E  E  E  E  E  E  E  E  E  E  E     E  E  E  E  E  E  E  E  E  E  E  E   
--------------------------------------|--------------------------------------|
--------------------------------------|--------------------------------------|
--------------------------------------|--------------------------------------|
--------------------------------------|-----------8--------8--6--5--9--7--6--|
-----------------------------8--6--8--|--5--6--8-----8--6--------------------|
--0--0--0--0--0--0--0--0--0-----------|--------------------------------------|


  PM PM PM PM PM PM PM PM PM             PM PM PM PM PM PM PM PM PM           
  |--3--|  |--3--|  |--3--|  |--3--|     |--3--|  |--3--|  |--3--|  |--3--|   
  E  E  E  E  E  E  E  E  E  E  E  E     E  E  E  E  E  E  E  E  E  E  E  E   
--------------------------------------|--------------------------------------|
--------------------------------------|--------------------------------------|
--------------------------------------|--------------------------------------|
--------------------------------------|--------------------------------------|
-----------------------------5--3--5--|-----------------------------6--5--6--|
--0--0--0--0--0--0--0--0--0-----------|--0--0--0--0--0--0--0--0--0-----------|


  PM PM PM PM PM PM PM PM PM             PM PM PM          PM PM PM           
  |--3--|  |--3--|  |--3--|  |--3--|     |--3--|  |--3--|  |--3--|  |--3--|   
  E  E  E  E  E  E  E  E  E  E  E  E     E  E  E  E  E  E  E  E  E  E  E  E   
--------------------------------------|--------------------------------------|
--------------------------------------|--------------------------------------|
--------------------------------------|--------------------------------------|
--------------------------------------|-----------------------------7--5-----|
-----------------------------8--6--8--|-----------6--5--6-----------------6--|
--0--0--0--0--0--0--0--0--0-----------|--0--0--0-----------0--0--0-----------|


  PM PM PM PM PM PM PM PM PM             PM PM PM PM PM PM PM PM PM           
  |--3--|  |--3--|  |--3--|  |--3--|     |--3--|  |--3--|  |--3--|  |--3--|   
  E  E  E  E  E  E  E  E  E  E  E  E     E  E  E  E  E  E  E  E  E  E  E  E   
--------------------------------------|--------------------------------------|
--------------------------------------|--------------------------------------|
--------------------------------------|--------------------------------------|
--------------------------------------|--------------------------------------|
-----------------------------5--3--5--|-----------------------------6--5--6--|
--0--0--0--0--0--0--0--0--0-----------|--0--0--0--0--0--0--0--0--0-----------|


  PM PM PM PM PM PM PM PM PM             PM PM PM       PM PM PM         
  |--3--|  |--3--|  |--3--|  |--3--|     |--3--|        |--3--|          
  E  E  E  E  E  E  E  E  E  E  E  E     E  E  E  E.  S E  E  E   E.  S  
--------------------------------------|---------------------------------|
--------------------------------------|---------------------------------|
--------------------------------------|---------------------------------|
--------------------------------------|---------------------------------|
-----------------------------8--6--8--|-----------7---7----------10---5-|
--0--0--0--0--0--0--0--0--0-----------|--0--0--0--7---7-0--0--0--10---5-|


  PM PM PM PM PM PM PM PM PM             PM PM PM PM PM PM PM PM PM           
  |--3--|  |--3--|  |--3--|  |--3--|     |--3--|  |--3--|  |--3--|  |--3--|   
  E  E  E  E  E  E  E  E  E  E  E  E     E  E  E  E  E  E  E  E  E  E  E  E   
--------------------------------------|--------------------------------------|
--------------------------------------|--------------------------------------|
--------------------------------------|--------------------------------------|
--------------------------------------|--------------------------------------|
-----------------------------5--3--5--|-----------------------------6--5--6--|
--0--0--0--0--0--0--0--0--0-----------|--0--0--0--0--0--0--0--0--0-----------|


  PM PM PM PM PM PM PM PM PM             PM PM PM          PM PM PM           
  |--3--|  |--3--|  |--3--|  |--3--|     |--3--|  |--3--|  |--3--|  |--3--|   
  E  E  E  E  E  E  E  E  E  E  E  E     E  E  E  E  E  E  E  E  E  E  E  E   
--------------------------------------|--------------------------------------|
--------------------------------------|--------------------------------------|
--------------------------------------|--------------------------------------|
--------------------------------------|-----------------------------7--5-----|
-----------------------------8--6--8--|-----------6--5--6-----------------6--|
--0--0--0--0--0--0--0--0--0-----------|--0--0--0-----------0--0--0-----------|


  PM PM PM PM PM PM PM PM PM             PM PM PM PM PM PM PM PM PM           
  |--3--|  |--3--|  |--3--|  |--3--|     |--3--|  |--3--|  |--3--|  |--3--|   
  E  E  E  E  E  E  E  E  E  E  E  E     E  E  E  E  E  E  E  E  E  E  E  E   
--------------------------------------|--------------------------------------|
--------------------------------------|--------------------------------------|
--------------------------------------|--------------------------------------|
--------------------------------------|--------------------------------------|
-----------------------------5--6--5--|-----------------------------6--5--6--|
--0--0--0--0--0--0--0--0--0-----------|--0--0--0--0--0--0--0--0--0-----------|


  PM PM PM PM PM PM PM PM PM                                                  
  |--3--|  |--3--|  |--3--|  |--3--|     |--3--|  |--3--|  |--3--|  |--3--|   
  E  E  E  E  E  E  E  E  E  E  E  E     E  E  E  E  E  E  E  E  E  E  E  E   
--------------------------------------|--------------------------------------|
--------------------------------------|--------------------------------------|
--------------------------------------|--------------------------------------|
--------------------------------------|-----------8--------8--6--5--9--7--6--|
-----------------------------8--6--8--|--5--6--8-----8--6--------------------|
--0--0--0--0--0--0--0--0--0-----------|--------------------------------------|


  |--3--|  |--3--|  |--3--|  |--3--|     |--3--|  |--3--|  |--3--|  |--3--|   
  E  E  E  E  E  E  E  E  E  E  E  E     E  E  E  E  E  E  E  E  E  E  E  E   
--------------------------------------|--------------------------------------|
--------------------------------------|--------------------------------------|
--------------------------------------|--------------------------------------|
--------------------------------------|--------------------------------------|
--3--3--3--3--3--3--3--3--3--3--3--3--|--3--3--3--3--3--3--3--3--3--3--3--3--|
--3--3--3--3--3--3--3--3--3--3--3--3--|--3--3--3--3--3--3--3--3--3--3--3--3--|


  |--3--|  |--3--|  |--3--|  |--3--|   
  E  E  E  E  E  E  E  E  E  E  E  E   
--------------------------------------|
--------------------------------------|
--------------------------------------|
--------------------------------------|
--2--2--2--2--2--2--2--2--2--2--2--2--|
--2--2--2--2--2--2--2--2--2--2--2--2--|


  |----3----|      |----3----|    |----3----|   
  Q    Q    Q      E    E    E    E    E    E   
-----------------------------------------------|
-----------------------------------------------|
-----------------------------------------------|
-----------------------------------------------|
--1----1----1------1----1----1----1----1----1--|
--1----1----1----<>1--<>1--<>1--<>1--<>1--<>1--|


                                                                    PH     
  |--3-|  |--3--|  |--3--|  |--3--|     |--3-|  |--3--|  |--3--|           
  Q    E  E  E  E  E  E  E  E  E  E     Q    E  E  E  E  E  E  E    Q      
-------------------------------------|------------------------------------|
-------------------------------------|------------------------------------|
-------------------------------------|------------------------------------|
-------------------3-----------------|-------------------3--------<>5~----|
----------5--3--5-----5--3--0--3--5--|----------5--3--5-----5--3----------|
--0----0-----------------------------|--0----0----------------------------|


                                        PM PM PM      PM PM PM       
  |--3-|  |--3--|  |--3--|  |--3--|     |--3--|       |--3--|        
  Q    E  E  E  E  E  E  E  E  E  E     E  E  E  Q    E  E  E  Q     
-------------------------------------|------------------------------|
-------------------------------------|------------------------------|
-------------------------------------|------------------------------|
-------------------3-----------------|------------------------------|
----------5--3--5-----5--3--0--3--5--|-----------6-------------3----|
--0----0-----------------------------|--0--0--0--6----0--0--0--3----|


                                                                    PH     
  |--3-|  |--3--|  |--3--|  |--3--|     |--3-|  |--3--|  |--3--|           
  Q    E  E  E  E  E  E  E  E  E  E     Q    E  E  E  E  E  E  E    Q      
-------------------------------------|------------------------------------|
-------------------------------------|------------------------------------|
-------------------------------------|------------------------------------|
-------------------3-----------------|-------------------3--------<>5~----|
----------5--3--5-----5--3--0--3--5--|----------5--3--5-----5--3----------|
--0----0-----------------------------|--0----0----------------------------|


                                        PM PM PM      PM PM PM       
  |--3-|  |--3--|  |--3--|  |--3--|     |--3--|       |--3--|        
  Q    E  E  E  E  E  E  E  E  E  E     E  E  E  Q    E  E  E  Q     
-------------------------------------|------------------------------|
-------------------------------------|------------------------------|
-------------------------------------|------------------------------|
-------------------3-----------------|------------------------------|
----------5--3--5-----5--3--0--3--5--|-----------6-------------3----|
--0----0-----------------------------|--0--0--0--6----0--0--0--3----|


  PM   PM                               PM   PM                     PH     
  |--3-|  |--3--|  |--3--|  |--3--|     |--3-|  |--3--|  |--3--|           
  Q    E  E  E  E  E  E  E  E  E  E     Q    E  E  E  E  E  E  E    Q      
-------------------------------------|------------------------------------|
-------------------------------------|------------------------------------|
-------------------------------------|------------------------------------|
-------------------3-----------------|-------------------3--------<>5~----|
--0----0--5--3--5-----5--3--0--3--5--|--0----0--5--3--5-----5--3----------|
--0----0-----------------------------|--0----0----------------------------|


  PM   PM                               PM PM PM      PM PM PM       
  |--3-|  |--3--|  |--3--|  |--3--|     |--3--|       |--3--|        
  Q    E  E  E  E  E  E  E  E  E  E     E  E  E  Q    E  E  E  Q     
-------------------------------------|------------------------------|
-------------------------------------|------------------------------|
-------------------------------------|------------------------------|
-------------------3-----------------|------------------------------|
--0----0--5--3--5-----5--3--0--3--5--|-----------6-------------3----|
--0----0-----------------------------|--0--0--0--6----0--0--0--3----|


  PM   PM                               PM   PM                     PH     
  |--3-|  |--3--|  |--3--|  |--3--|     |--3-|  |--3--|  |--3--|           
  Q    E  E  E  E  E  E  E  E  E  E     Q    E  E  E  E  E  E  E    Q      
-------------------------------------|------------------------------------|
-------------------------------------|------------------------------------|
-------------------------------------|------------------------------------|
-------------------3-----------------|-------------------3--------<>5~----|
--0----0--5--3--5-----5--3--0--3--5--|--0----0--5--3--5-----5--3----------|
--0----0-----------------------------|--0----0----------------------------|


  PM   PM                               PM PM PM      PM PM PM       
  |--3-|  |--3--|  |--3--|  |--3--|     |--3--|       |--3--|        
  Q    E  E  E  E  E  E  E  E  E  E     E  E  E  Q    E  E  E  Q     
-------------------------------------|------------------------------|
-------------------------------------|------------------------------|
-------------------------------------|------------------------------|
-------------------3-----------------|------------------------------|
--0----0--5--3--5-----5--3--0--3--5--|-----------6-------------3----|
--0----0-----------------------------|--0--0--0--6----0--0--0--3----|


      PM PM    PM PM    PM    PM    PM    PM    PM      
   E  E  E  E  E  E  E  E     E  E  E  E  E  E  E  E    
---------------------------|---------------------------|
---------------------------|---------------------------|
---------------------------|---------------------------|
--10--------7--------7-----|-----5-----8-----6-----8s--|
---8--------5--------5-----|-----3-----6-----4-----6s--|
------0--0-----0--0-----0--|--0-----0-----0-----0------|


      PM PM    PM PM    PM    PM PM PM PM PM PM PM PM  
   E  E  E  E  E  E  E  E     E  E  E  E  E  E  E  E   
---------------------------|--------------------------|
---------------------------|--------------------------|
---------------------------|--------------------------|
--10--------7--------7-----|--------------------------|
---8--------5--------5-----|--------------------------|
------0--0-----0--0-----0--|--0--0--0--0--0--0--0--0--|


      PM PM    PM PM    PM    PM    PM    PM    PM      
   E  E  E  E  E  E  E  E     E  E  E  E  E  E  E  E    
---------------------------|---------------------------|
---------------------------|---------------------------|
---------------------------|---------------------------|
--10--------7--------7-----|-----5-----8-----6-----8s--|
---8--------5--------5-----|-----3-----6-----4-----6s--|
------0--0-----0--0-----0--|--0-----0-----0-----0------|


      PM PM    PM PM    PM    PM PM PM PM PM PM PM PM PM PM PM PM  
                              |--3--|  |--3--|  |--3--|  |--3--|   
   E  E  E  E  E  E  E  E     E  E  E  E  E  E  E  E  E  E  E  E   
---------------------------|--------------------------------------|
---------------------------|--------------------------------------|
---------------------------|--------------------------------------|
--10--------7--------7-----|--------------------------------------|
---8--------5--------5-----|--------------------------------------|
------0--0-----0--0-----0--|--7--6--5--6--5--4--5--4--3--4--3--2--|


      PM PM    PM PM    PM    PM    PM    PM    PM      
   E  E  E  E  E  E  E  E     E  E  E  E  E  E  E  E    
---------------------------|---------------------------|
---------------------------|---------------------------|
---------------------------|---------------------------|
--10--------7--------7-----|-----5-----8-----6-----8s--|
---8--------5--------5-----|-----3-----6-----4-----6s--|
------0--0-----0--0-----0--|--0-----0-----0-----0------|


      PM PM    PM PM    PM    PM PM        PM PM         
   E  E  E  E  E  E  E  E     E  E  E   E  E  E  E   E   
---------------------------|----------------------------|
---------------------------|----------------------------|
---------------------------|----------------------------|
--10--------7--------7-----|----------------------------|
---8--------5--------5-----|--------7s--6--------6s--5--|
------0--0-----0--0-----0--|--0--0--7s--6--0--0--6s--5--|


      PM PM    PM PM    PM    PM    PM    PM    PM      
   E  E  E  E  E  E  E  E     E  E  E  E  E  E  E  E    
---------------------------|---------------------------|
---------------------------|---------------------------|
---------------------------|---------------------------|
--10--------7--------7-----|-----5-----8-----6-----8s--|
---8--------5--------5-----|-----3-----6-----4-----6s--|
------0--0-----0--0-----0--|--0-----0-----0-----0------|


      PM PM    PM PM    PM    PM PM PM PM PM PM PM PM  
   E  E  E  E  E  E  E  E     E  E  E  E  E  E  E  E   
---------------------------|--------------------------|
---------------------------|--------------------------|
---------------------------|--------------------------|
--10--------7--------7-----|--------------------------|
---8--------5--------5-----|--------------------------|
------0--0-----0--0-----0--|--0--0--0--0--0--0--0--0--|


      PM PM    PM PM    PM    PM    PM    PM    PM      
   E  E  E  E  E  E  E  E     E  E  E  E  E  E  E  E    
---------------------------|---------------------------|
---------------------------|---------------------------|
---------------------------|---------------------------|
--10--------7--------7-----|-----5-----8-----6-----8s--|
---8--------5--------5-----|-----3-----6-----4-----6s--|
------0--0-----0--0-----0--|--0-----0-----0-----0------|


      PM PM    PM PM    PM    PM PM PM PM PM PM PM PM PM PM PM PM  
                              |--3--|  |--3--|  |--3--|  |--3--|   
   E  E  E  E  E  E  E  E     E  E  E  E  E  E  E  E  E  E  E  E   
---------------------------|--------------------------------------|
---------------------------|--------------------------------------|
---------------------------|--------------------------------------|
--10--------7--------7-----|--------------------------------------|
---8--------5--------5-----|--------------------------------------|
------0--0-----0--0-----0--|--7--6--5--6--5--4--5--4--3--4--3--2--|


      PM PM    PM PM    PM    PM    PM    PM    PM      
   E  E  E  E  E  E  E  E     E  E  E  E  E  E  E  E    
---------------------------|---------------------------|
---------------------------|---------------------------|
---------------------------|---------------------------|
--10--------7--------7-----|-----5-----8-----6-----8s--|
---8--------5--------5-----|-----3-----6-----4-----6s--|
------0--0-----0--0-----0--|--0-----0-----0-----0------|


      PM PM    PM PM    PM    PM PM PM PM PM PM PM PM  
   E  E  E  E  E  E  E  E     E  E  E  E  E  E  E  E   
---------------------------|--------------------------|
---------------------------|--------------------------|
---------------------------|--------------------------|
--10--------7--------7-----|--------------------------|
---8--------5--------5-----|--------------------------|
------0--0-----0--0-----0--|--0--0--0--0--0--0--0--0--|


      PM PM    PM PM    PM    PM    PM    PM    PM      
   E  E  E  E  E  E  E  E     E  E  E  E  E  E  E  E    
---------------------------|---------------------------|
---------------------------|---------------------------|
---------------------------|---------------------------|
--10--------7--------7-----|-----5-----8-----6-----8s--|
---8--------5--------5-----|-----3-----6-----4-----6s--|
------0--0-----0--0-----0--|--0-----0-----0-----0------|


      PM PM    PM PM    PM    PM PM PM PM PM PM PM PM PM PM PM PM  
                              |--3--|  |--3--|  |--3--|  |--3--|   
   E  E  E  E  E  E  E  E     E  E  E  E  E  E  E  E  E  E  E  E   
---------------------------|--------------------------------------|
---------------------------|--------------------------------------|
---------------------------|--------------------------------------|
--10--------7--------7-----|--------------------------------------|
---8--------5--------5-----|--0--0--0--0--0--0--0--0--0--0--0--0--|
------0--0-----0--0-----0--|--0--0--0--0--0--0--0--0--0--0--0--0--|


      PM PM    PM PM    PM    PM    PM    PM    PM      
   E  E  E  E  E  E  E  E     E  E  E  E  E  E  E  E    
---------------------------|---------------------------|
---------------------------|---------------------------|
---------------------------|---------------------------|
--10--------7--------7-----|-----5-----8-----6-----8s--|
---8--------5--------5-----|-----3-----6-----4-----6s--|
------0--0-----0--0-----0--|--0-----0-----0-----0------|


      PM PM    PM PM    PM    PM PM PM PM PM PM PM PM  
   E  E  E  E  E  E  E  E     E  E  E  E  E  E  E  E   
---------------------------|--------------------------|
---------------------------|--------------------------|
---------------------------|--------------------------|
--10--------7--------7-----|--------------------------|
---8--------5--------5-----|--------------------------|
------0--0-----0--0-----0--|--0--0--0--0--0--0--0--0--|


      PM PM    PM PM    PM    PM    PM    PM    PM      
   E  E  E  E  E  E  E  E     E  E  E  E  E  E  E  E    
---------------------------|---------------------------|
---------------------------|---------------------------|
---------------------------|---------------------------|
--10--------7--------7-----|-----5-----8-----6-----8s--|
---8--------5--------5-----|-----3-----6-----4-----6s--|
------0--0-----0--0-----0--|--0-----0-----0-----0------|


      PM PM    PM PM    PM    PM PM PM PM PM PM PM PM PM PM PM PM  
                              |--3--|  |--3--|  |--3--|  |--3--|   
   E  E  E  E  E  E  E  E     E  E  E  E  E  E  E  E  E  E  E  E   
---------------------------|--------------------------------------|
---------------------------|--------------------------------------|
---------------------------|--------------------------------------|
--10--------7--------7-----|--------------------------------------|
---8--------5--------5-----|--0--0--0--0--0--0--0--0--0--0--0--0--|
------0--0-----0--0-----0--|--0--0--0--0--0--0--0--0--0--0--0--0--|


  PM PM PM PM PM PM PM PM PM PM PM PM                                         
  |--3--|  |--3--|  |--3--|  |--3--|     |--3--|  |--3--|  |--3--|  |--3--|   
  E  E  E  E  E  E  E  E  E  E  E  E     E  E  E  E  E  E  E  E  E  E  E  E   
--------------------------------------|--------------------------------------|
--------------------------------------|--------------------------------------|
--------------------------------------|--------------------------------------|
--------------------------------------|--------------------------------------|
--------------------------------------|--3--3--3--3--3--3--3--3--3--3--3--3--|
--7--6--5--6--5--4--5--4--3--4--3--2--|--3--3--3--3--3--3--3--3--3--3--3--3--|


  |--3--|  |--3--|  |--3--|  |--3--|     |--3--|  |--3--|  |--3--|  |--3--|   
  E  E  E  E  E  E  E  E  E  E  E  E     E  E  E  E  E  E  E  E  E  E  E  E   
--------------------------------------|--------------------------------------|
--------------------------------------|--------------------------------------|
--------------------------------------|--------------------------------------|
--------------------------------------|--------------------------------------|
--3--3--3--3--3--3--3--3--3--3--3--3--|--2--2--2--2--2--2--2--2--2--2--2--2--|
--3--3--3--3--3--3--3--3--3--3--3--3--|--2--2--2--2--2--2--2--2--2--2--2--2--|


  |----3----|      |----3----|    |----3----|   
  Q    Q    Q      E    E    E    E    E    E   
-----------------------------------------------|
-----------------------------------------------|
-----------------------------------------------|
-----------------------------------------------|
--1----1----1------1----1----1----1----1----1--|
--1----1----1----<>1--<>1--<>1--<>1--<>1--<>1--|


  PM   PM   PM   PM   PM   PM      PM   PM   PM   PM   PM   PM    
  |----3----|    |----3----|       |----3----|    |----3----|     
  Q    Q    Q    Q    Q    Q       Q    Q    Q    Q    Q    Q     
--------------------------------|--------------------------------|
--------------------------------|--------------------------------|
--------------------------------|--------------------------------|
--------------------------------|--------------------------------|
--3----3----3----3----3----3----|--3----3----3----3----3----3----|
--3----3----3----3----3----3----|--3----3----3----3----3----3----|


  PM   PM   PM   PM   PM   PM      PM   PM   PM   PM PM PM PM PM PM  
  |----3----|    |----3----|       |----3----|    |--3--|  |--3--|   
  Q    Q    Q    Q    Q    Q       Q    Q    Q    E  E  E  E  E  E   
--------------------------------|-----------------------------------|
--------------------------------|-----------------------------------|
--------------------------------|-----------------------------------|
--------------------------------|-----------------------------------|
--2----2----2----2----2----2----|--1----1----1----1--1--1--1--1--1--|
--2----2----2----2----2----2----|--1----1----1----1--1--1--1--1--1--|


                                                                    PH     
  |--3-|  |--3--|  |--3--|  |--3--|     |--3-|  |--3--|  |--3--|           
  Q    E  E  E  E  E  E  E  E  E  E     Q    E  E  E  E  E  E  E    Q      
-------------------------------------|------------------------------------|
-------------------------------------|------------------------------------|
-------------------------------------|------------------------------------|
-------------------3-----------------|-------------------3--------<>5~----|
----------5--3--5-----5--3--0--3--5--|----------5--3--5-----5--3----------|
--0----0-----------------------------|--0----0----------------------------|


                                        PM PM PM      PM PM PM       
  |--3-|  |--3--|  |--3--|  |--3--|     |--3--|       |--3--|        
  Q    E  E  E  E  E  E  E  E  E  E     E  E  E  Q    E  E  E  Q     
-------------------------------------|------------------------------|
-------------------------------------|------------------------------|
-------------------------------------|------------------------------|
-------------------3-----------------|------------------------------|
----------5--3--5-----5--3--0--3--5--|-----------6-------------3----|
--0----0-----------------------------|--0--0--0--6----0--0--0--3----|


                                                                    PH     
  |--3-|  |--3--|  |--3--|  |--3--|     |--3-|  |--3--|  |--3--|           
  Q    E  E  E  E  E  E  E  E  E  E     Q    E  E  E  E  E  E  E    Q      
-------------------------------------|------------------------------------|
-------------------------------------|------------------------------------|
-------------------------------------|------------------------------------|
-------------------3-----------------|-------------------3--------<>5~----|
----------5--3--5-----5--3--0--3--5--|----------5--3--5-----5--3----------|
--0----0-----------------------------|--0----0----------------------------|


                                        PM PM PM      PM PM PM       
  |--3-|  |--3--|  |--3--|  |--3--|     |--3--|       |--3--|        
  Q    E  E  E  E  E  E  E  E  E  E     E  E  E  Q    E  E  E  Q     
-------------------------------------|------------------------------|
-------------------------------------|------------------------------|
-------------------------------------|------------------------------|
-------------------3-----------------|------------------------------|
----------5--3--5-----5--3--0--3--5--|-----------6-------------3----|
--0----0-----------------------------|--0--0--0--6----0--0--0--3----|


  PM   PM                               PM   PM                     PH     
  |--3-|  |--3--|  |--3--|  |--3--|     |--3-|  |--3--|  |--3--|           
  Q    E  E  E  E  E  E  E  E  E  E     Q    E  E  E  E  E  E  E    Q      
-------------------------------------|------------------------------------|
-------------------------------------|------------------------------------|
-------------------------------------|------------------------------------|
-------------------3-----------------|-------------------3--------<>5~----|
--0----0--5--3--5-----5--3--0--3--5--|--0----0--5--3--5-----5--3----------|
--0----0-----------------------------|--0----0----------------------------|


  PM   PM                               PM   PM                             
  |--3-|  |--3--|  |--3--|  |--3--|     |--3-|  |--3--|  |--3--|  |--3--|   
  Q    E  E  E  E  E  E  E  E  E  E     Q    E  E  E  E  E  E  E  E  E  E   
-------------------------------------|-------------------------------------|
-------------------------------------|-------------------------------------|
-------------------------------------|-------------------------------------|
-------------------3-----------------|-------------------3-----------------|
--0----0--5--3--5-----5--3--0--3--5--|--0----0--5--3--5-----5--3--0--3--5--|
--0----0-----------------------------|--0----0-----------------------------|


  PM   PM                              
  |--3-|  |--3--|  |--3--|  |--3--|    
  Q    E  E  E  E  E  E  E  E  E  E    
-------------------------------------||
-------------------------------------||
-------------------------------------||
-------------------3-----------------||
--0----0--5--3--5-----5--3--0--3--5--||
--0----0-----------------------------||

SOLO! Probably not too accurate, sorry.

-------|-------|-------|-------|--17~-------------L--15p-12-|
-------|-------|-------|-------|----------------------------|
-------|-------|-------|-------|----------------------------|
-------|-------|-------|-------|----------------------------|
-------|-------|-------|-------|----------------------------|
-------|-------|-------|-------|----------------------------|


   W                      S  S  S  S  S  S  S  S  S   S   S  S  S  S   E   
--15b~----------------|-----22--------------------------------------------|
----------------------|--22----22-20-22-20-18-15-18h-20p-18-15-18-20b--L--|
----------------------|---------------------------------------------------|
----------------------|---------------------------------------------------|
----------------------|---------------------------------------------------|
----------------------|---------------------------------------------------|


   S  S  S   S  S  S  S  S   S  S  S   S  S  S  S  S  
-----------------------------------------------------|
-----------------------------------------------------|
--12-13-15p-13-12----12-----------15p-13-12----12----|
------------------15----15p-13-12-----------15----15-|
-----------------------------------------------------|
-----------------------------------------------------|


   S   S  H.              E      H          E   Q.       
-----------------------------|--------------------------|
-------------------------13--|--------------------------|
---------14b~----------------|--14b--------12-----------|
--13p-12---------------------|-----------------15~------|
-----------------------------|--------------------------|
-----------------------------|--------------------------|


   Q     S   S  S   S  S   S  S   S  S   S  S   S  
--------------------------------------------------|
----------------------15p-13----------------------|
--12-------------------------16p-12--------16p-12-|
--------13p-12-15p-13---------------16p-12--------|
--------------------------------------------------|
--------------------------------------------------|


                                 PH               PH           PH         
   S   S  S   S  S   S  S   S    H                H            H          
--------------------------------------------|----------------------------|
---------15p-13---------------<>13b~--------|----------------------------|
----------------16p-12----------------------|----------------------------|
--16p-12---------------16p-12---------------|----------------------------|
--------------------------------------------|----------------------------|
--------------------------------------------|--<>20b--------<>13~--------|


                    PH                                       
   S   S   S   S    E    S   S   S  S   S   S  S   S   S  S  
------------------------------------------------------------|
------------------------------------------------------------|
----------------------------------------------13h-14p-13----|
-----------------------------------13h-14h-16------------16-|
------------------------13h-14h-16--------------------------|
--12p-11h-12p-11-<>12b--------------------------------------|


                   PH           PH               PH                 
   S  S   S   S    H            Q        S  S    H.             E   
-------------------------------------|-----------------------------|
-------------------------------------|-----------------------------|
--13---------------------------------|-----------------------------|
-----16p-14h-16-<>20b--------<>23----|--17-15-<>17b~---------------|
-------------------------------------|-----------------------------|
-------------------------------------|-----------------------------|


   S   S   S  S  S   S   S  S  S   S   S  S  S   S   S  S  
----------------------------------------------------------|
--15h-18p-15----15h-18p-15----15h-20p-15----15h-20p-15----|
-------------17------------17------------17------------17-|
----------------------------------------------------------|
----------------------------------------------------------|
----------------------------------------------------------|


   S   S  S   S  S   S  S   S  S   S  S   S  S   S  S   S  
----------------------------------------------------------|
--15p-13--------15p-13--------15p-13--------15p-13--------|
---------15p-12--------15p-12--------15p-12--------15p-12-|
----------------------------------------------------------|
----------------------------------------------------------|
----------------------------------------------------------|


     PH                 PH                                             
     H.                 Q         H          S   S  S  S  S  S  S   S  
------------------------------|---------------------------------------|
------------------------------|-----------------------------10--------|
--<>12brb------------<>12~----|---L~--------12p-10----10-12----12p-10-|
------------------------------|--------------------12-----------------|
------------------------------|---------------------------------------|
------------------------------|---------------------------------------|


                                                                      W       
   |---3---|   |---3---|   |---3---|   |---3---|                              
   E   E   E   E   E   E   E   E   E   E   E   E      H.              Q       
--------------------------------------------------|--------------------------|
--------------------------------------------------|--------------------------|
--------------------------------------------------|--------------------------|
--12--11--10--------------------------------------|--------------------------|
--------------12--11--10--------------------------|--------------------------|
--------------------------14--13--12--12--11--10--|--12------------<>12br----|



Duration Legend
---------------
W - whole
H - half
Q - quarter
E - 8th
S - 16th
T - 32nd
X - 64th
. - note dotted
|-n-|  - n-tuplets


Tablature Legend
----------------
L - tied note
x - dead note
g - grace note
(n) - ghost note
> - accentuded note
NH - natural harmonic
AH - artificial harmonic
TH - tapped harmonic
SH - semi harmonic
PH - pitch harmonic
h - hammer on
p - pull off
b - bend
br - bendRelease
pb - preBend
pbr - preBendRelease
brb - bendReleaseBend
\n/ - tremolo bar dip
\n - tremolo bar dive
-/n - tremolo bar Release up
/n\ - tremolo bar inverted dip
/n - tremolo bar return
-\n - tremolo bar Release down
S - shift slide
s - legato slide
/ -  slide into from below or out of upwards
\ -  slide into from above or out of downwards
~ - vibrato
W - wide vibrato
tr - trill
TP - tremolo picking
T - tapping
S - slap
P - pop
< - fade in
^ - brush up
v - brush down
Добавлено: 10.07.2012
Другие материалы по этой песне:

Страница создана 24.03.2012
http://primanota.ru/lamb-of-god/choke-sermon-chords.htm
Привет, Гость.
Предлагаем пройти революционный курс по гитаре.
Подарок от PrimaNota.Ru, забирай!