PrimaNota.ru - самый крупный в мире бесплатный архив песенных текстов, аккордов, табулатур и нот


Lamb Of God - A Warning - текст песни, таба, бас-таба, видео

Регистрация Запомнить меня
Войти через:  Facebook Google Twitter Vk Yandex Mail.ru

Lamb Of God - A Warning - текст песни, таба, бас-таба, видео

Печатать
Просмотров: 170
Авторы музыки: Lamb of God
Авторы текста: Randy Blythe
Drop D 


Intro Gtrs 1&2  4x


|--------------------------------------|-------------------------------------
|--------------------------------------|-------------------------------------
|--------------------------------------|-------------------------------------
|--------------------------------------|-------------------------------------
|-8--0-0-0---0-0-0---6---0-0--0-0--0-0-|-8--0-0-0---0-0-0---6--0-0--0-0--0-0-
|-8--0-0-0---0-0-0---6---0-0--0-0--0-0-|-8--0-0-0---0-0-0---6--0-0--0-0--0-0-
     . . .   . . .       . .  . .  . .      . . .   . . .      . .  . .  . .



 Gtrs 1&2


|------------------------------|------------------------------|
|------------------------------|------------------------------|
|------------------------------|------------------------------|
|------------------------------|------------------------------|
|-1--0---0-0-0---0-1--0--0-0-0-|-1--0---0-0-0---0-1--0--0-0-0-|
|-1--0---0-0-0---0-1--0--0-0-0-|-1--0---0-0-0---0-1--0--0-0-0-|
         . . .   .       . . .          . . .   .       . . .



Chorus Gtrs 1&2



|------------------------------------------------------------------|
|------------------------------------------------------------------|
|------------------------------------------------------------------|
|-------------------3----------------------------------------------|
|-3p2-2-----2-2-2-2-1-2--2-2-2-----2h3-2-----2-2-2--2h3-2h5-2h3-2--|
|-3p2-2-----2-2-2-2---2--2-2-2-----2h3-2-----2-2-2--2h3-2h5-2h3-2--|
            . . . .      . . .               . . .



Fill Gtrs 1&2  2x


|------------------------------|------------------------------|
|------------------------------|------------------------------|
|------------------------------|------------------------------|
|------------------------------|------------------------------|
|-3--2---2-2-2---2-3--2--2-2-2-|-3--2---2-2-2---2-3--2--2-2-2-|
|-3--2---2-2-2---2-3--2--2-2-2-|-3--2---2-2-2---2-3--2--2-2-2-|
         . . .   .       . . .          . . .   .       . . .



Verse Gtrs 1&2


|------------------------------|------------------------------|
|------------------------------|------------------------------|
|------------------------------|------------------------------|2x
|------------------------------|------------------------------|
|-1--0---0-0-0---0-1--0--0-0-0-|-1--0---0-0-0---0-1--0--0-0-0-|
|-1--0---0-0-0---0-1--0--0-0-0-|-1--0---0-0-0---0-1--0--0-0-0-|
         . . .   .       . . .          . . .   .       . . .


|------------------------------|------------------------------|
|------------------------------|------------------------------|
|------------------------------|------------------------------|1x
|------------------------------|------------------------------|
|-3--2---2-2-2---2-3--2--2-2-2-|-3--2---2-2-2---2-3--2--2-2-2-|
|-3--2---2-2-2---2-3--2--2-2-2-|-3--2---2-2-2---2-3--2--2-2-2-|
         . . .   .       . . .          . . .   .       . . .



Breakdown Gtr 1  3x

|------------------------|------------------------|
|------------------------|------------------------|
|------------------------|------------------------|
|------------------------|------------------------|
|-4--1--4--0--3--2--5--6-|-4--1--4--0--3--2--5--6-|
|------------------------|------------------------|
  tr.............................................



Breakdown Gtr 2 Comes in second time  2x

|-----------------------------|-----------------------------|
|-----------------------------|-----------------------------|
|-----------------------------|-----------------------------|
|-----------------------------|-----------------------------|
|-11--8--11--7--10--9--12--13-|-11--8--11--7--10--9--12--13-|
|-----------------------------|-----------------------------|
  tr.......................................................



Build Up Gtrs 1&2  4x


|--------------------------|
|--------------------------|
|--------------------------|
|--------------------------|
|-0-0-1-0-1-0--0-1-0-1-0-1-|
|-0-0-1-0-1-0--0-1-0-1-0-1-|
  . . . . . .  . . . . . .



Outro Gtr 1  8x


|----------------------------------------------------------------------------
|----------9-9-9------------------9-9-9------------------10-10-10------------
|----------x-x-x------------------x-x-x-------------------x--x--x------------
|----------6-6-6------------------6-6-6-------------------7--7--7------------
|-1-0-1-0---------1-0------0-1-0---------1-0--------1-0------------0-1-------
|-1-0-1-0---------1-0------0-1-0---------1-0--------1-0------------0-1-------
  . . . .         . .      . . .         . .        . .            . .

Outro Gtr 2


|----------------------------------------------------------------------------
|-------------------9-9-9--------------------9-9-9---------------------7-7-7-
|-------------------x-x-x--------------------x-x-x---------------------x-x-x-
|-------------------6-6-6--------------------6-6-6---------------------4-4-4-
|-1-0-1-0------1-0---------0-1-0--------1-0---------1-0-----------0-1--------
|-1-0-1-0------1-0---------0-1-0--------1-0---------1-0-----------0-1--------
  . . . .      . .         . . .        . .         . .           . .

 Gtrs 1&2


|---------------------|
|---------------------|
|---------------------|
|---------------------|
|-0-0-0-0-0-0-0-0-----|
|-0-0-0-0-0-0-0-0-----|
  . . . . . . . .
Добавлено: 19.03.2012
Другие материалы по этой песне:

Страница создана 19.03.2012
http://primanota.ru/lamb-of-god/a-warning-chords.htm
Привет, Гость.
Предлагаем пройти революционный курс по гитаре.
Подарок от PrimaNota.Ru, забирай!