PrimaNota.ru - самый крупный в мире бесплатный архив песенных текстов, аккордов, табулатур и нот


Lamb Of God - Ashes Of The Wake - текст песни, таба, бас-таба, видео

Регистрация Запомнить меня
Войти через:  Facebook Google Twitter Vk Yandex Mail.ru

Lamb Of God - Ashes Of The Wake - текст песни, таба, бас-таба, видео

Печатать
Просмотров: 153
Lamb Of God - Ashes Of The Wake
------------
Laid To Rest
------------
Intro Guitar 1 (0:01)
|---------------------------|
|---------------------------|
|---------------------------|
|--------------------0--10/-|
|--------------------0--10/-|
|--------------------0--10/-|
                   
|-------------------------------------------------------|
|-------------------------------------------------------|
|-------------------------------------------------------|
|----------------------3--------------------------------|
|--------6-5-3-----------5-6----------------------------|
|-0-0-0---------0-0-0---------0-0-0--8-5-4/7-8-7-10-7-8-|
PM-----         -----         -----

|-------------------------------------------------------|
|-------------------------------------------------------|
|-------------------------------------------------------|
|-------4h5p4----------8-7-5--4h5p4---4-----------------|
|-------------6---------------------6---5-6-3-5---3-----|
|-0-0-0----------0-0-0--------------------------6---5-6-|
PM-----          ----- 

Intro Guitar 2 (timing on the above)
|-------------------------------------------------------|
|-------------------------------------------------------|
|-------------------------------------------------------|
|-0-----------------------------------------------------|
|-0-----------------------------------------------------|
|-0-----------------------------------------------------|
 
|-------------------------------------------------------|
|-------------------------------------------------------|
|-------------------------------------------------------|
|-0---------------------------4h5p4---4-----------------|
|-0---------------------------------6---5-6-3-5---3-----|
|-0---------------------------------------------6---5-6-|
PM                                  -------------

Guitars 1 and 2 x3 (0:08)
|-------------------------------------------------------|
|-------------------------------------------------------|
|-------------------------------------------------------|
|-------------------------------------------------------|
|-2-2-2-2------2-2-2-2--------2-2--2--------------------|
|-2-2-2-2-3b*--2-2-2-2-3b*----2-2--2-2-3-2-5-4-3--------|
PM-------      -------        ------

4th time
|-------------------------------------------------------|
|-------------------------------------------------------|
|-------------------------------------------------------|
|-------------------------------------------------------|
|-2-2-2-2------2-2-2-2--------2-2--2--------------------|
|-2-2-2-2-3b*--2-2-2-2-3b*----2-2--2-2-3-2-3-2-1--------|
PM-------      -------        ------

1st Verse Guitar 1 (0:22)
|--------------------------------------|
|-------------------13-------11--------| 8x
|-15p14----12h14-------15-------14-----|
|-------12-------12-------12-------12--|
|--------------------------------------|
|--------------------------------------|

Guitar 2 
|-------------------------------------------------------|
|-------------------------------------------------------|
|-------------------------------------------------------| 4x
|-------------------------------------------------------|
|-0-0-0-0-0---0-0-0-0-0---0-0--0--0-0-0-0---------------|
|-0-0-0-0-0---0-0-0-0-0---0-0--0--0-0-0-0---------------|
PM---------------------------------------

Guitar 1 and 2 (0:35, 1:24)
|-------------------------------------------------------|
|-------------------------------------------------------|
|-------------------------------------------------------|
|-------------------------------------------------------|
|-2-2-2-2------2-2-2-2--------2-2--2--------------------|
|-2-2-2-2-3b*--2-2-2-2-3b*----2-2--2-2-3-2-5-4-3--------|
PM-------      -------        ------

|-------------------------------------------------------|
|-------------------------------------------------------|
|-------------------------------------------------------|
|-------------------------------------------------------|
|-2-2-2-2------2-2-2-2--------2-2--2--------------------|
|-2-2-2-2-3b*--2-2-2-2-3b*----2-2--2-2-3-2-3-2-1--------|
PM-------      -------        ------

2nd and 3rd Verse Guitars 1 and 2 (0:42, 1:31)
|-------------------------------------------------------|
|-------------------------------------------------------|
|-------------------------------------------------------|
|----------------------3--------------------------------|
|--------6-5-3-----------5-6----------------------------|
|-0-0-0---------0-0-0---------0-0-0--8-5-4/7-8-7-10-7-8-|
PM-----         -----         -----
|-------------------------------------------------------|
|-------------------------------------------------------|
|-------------------------------------------------------|
|-------4h5p4----------8-7-5--4h5p4---4-----------------|
|-------------6---------------------6---5-6-3-5---3-----|
|-0-0-0----------0-0-0--------------------------6---5-6-|
PM-----          -----

Guitar 1 plays the top riffs once and plays this riff
|-------------------------------------------------------|
|-------------------------------------------------------|
|-/7----------------5----12---11------------5----3------|
|--x----------------x-----x----x------------x----x----7-|
|-/5----------------3----10----9------------3----1----x-|
|-----------------------------------------------------7-|

|-------------------------------------------------------|
|-------------------------------------------------------|
|-------------------------------------------------------|
|-5----5/8----7-----------------------------3----1------|
|-x----x-x----x-----------------------------x----x------|
|-5----5/8----7-----------------------------3----1------|

Chorus Guitars 1 and 2 (1:10, 1:58, 2:48)
|-------------------------------------------------------|
|-------------------------------------------------------|
|-------------------------------------------------------| 2x
|-------------------------------------------------------|
|-------------------------------------------------------|
|-0--0-6-3-5-0--0-1-3-1-0--0-6-3-5-----0-1-3-5*-3-------|
PM                                     ----- 
                                       * - slight p.h.

|-------------------------------------------------------|
|-------------------------------------------------------|
|-------------------------------------------------------| 2x
|-------------------------------------------------------|
|-------------------------------------------------------|
|-000-6-3-5-000-1-3-1-000-6-3-5--------0-1-3-5*-3-------|
PM---       ---       ---              -----
                                       * - slight p.h.

Guitar 1 (2:12)
|-------------------------------------------------------|
|-------------------------------------------------------|
|-------------------------------------------------------|
|-------------------------------------------------------|
|-------------------------------------------------------|
|-1-1-1-1-1---1-1-1-1-1---1-1--1--1-1-1-1---------------|
PM---------------------------------------

|-------------------------------------------------------|
|-------------------------------------------------------|
|-------------------------------------------------------|
|-------------------------------------------------------|
|-------------------------------------------------------|
|-1-1-1-1-1---1-1-1-1-1---1-1--1--1-1-------------------|
PM-----------------------------------

Guitars 1 and 2 (2:20)
|-------------------------------------------------------|
|-------------------------------------------------------|
|-------------------------------------------------------| 
|-------------------------------------------------------|
|-0-0-0-0-0---0-0-0-0-0---0-0--0--0-0-0-0---------------|
|-0-0-0-0-0---0-0-0-0-0---0-0--0--0-0-0-0---------------|
PM---------------------------------------

Guitar 2 (2:34)
|-------------------------------------------------------|
|-------------------------------------------------------|
|-------------------------------------------------------| 3x
|----------------------3--------------------------------|
|--------6-5-3-----------5-6----------------------------|
|-0-0-0---------0-0-0---------0-0-0--8-5-4/7-8-7-10-7-8-|
PM-----         -----         -----

|-------------------------------------------------------|
|-------------------------------------------------------|
|-------------------------------------------------------|
|---------------------3-------4h5p4---4-----------------|
|--------6-5-3----------5-6---------6---5-6-3-5---3-----|
|-0-0-0---------0-0-0---------------------------6---5-6-|
PM-----         -----

Guitar 1
|-------------------------------------------------------|
|-------------------------------------------------------|
|-------------------------------------------------------| 3x
|-------------------------------------------------------|
|-------------------------------------------------------|
|-0-0-0-0-0---0-0-0-0-0---0-0--0--0-0-0-0---------------|
PM---------------------------------------

|-------------------------------------------------------|
|-------------------------------------------------------|
|-------------------------------------------------------|
|-------------------------------------------------------|
|---------------------------------------------/16\\----|
|-0-0-0-0-0---0-0-0-0-0---0-------------------/16\\----|
PM-------------------------

Pre Verse (3:02)
Guitar 1----       Guitar 2--
|-------------------------------------------------------|
|-------------------------------------------------------|
|-------------------------------------------------------|
|-------------------------------------------------------|
|-------------------------------------------------------|
|-0-1-3-5*-3-------0-4-7-7b-4---------------------------|
PM-----            -

Verse 4 Guitars 1 and 2 (3:04)
|-------------------------------------------------------|
|-------------------------------------------------------|
|-------------------------------------------------------|
|-------------------------1-------1---1-------1---------|
|-5-------5---5-------5---------------------------------|
|---5-0-5---5---5-0-5---5---5-1-5---5---5-1-5---5-------|
PM  -----   -   -----   -   -----   -   -----   -

|-------------------------------------------------------|
|-------------------------------------------------------|
|-------------------------------------------------------|
|-------------------------------------------------------|
|----------------------------0-------0---0-------0------|
|-8-7-5-7-8-7-8-7-5-7-8-7-0----5-1-5---1---5-1-5---1----|
PM-------------------------    -----   -   -----   -

Outro (3:33) Guitar 2
|--------------------------------------|
|-------------------13-------11--------| 7x
|-15p14----12h14-------15-------14-----|
|-------12-------12-------12-------12--|
|--------------------------------------|
|--------------------------------------|

Guitar 1
|-------------------------------------------------------|
|-------------------------------------------------------|
|-------------------------------------------------------| 4x
|-------------------------------------------------------|
|-0-0-0-0-0---0-0-0-0-0---0-0--0--0-0-0-0---------------|
|-0-0-0-0-0---0-0-0-0-0---0-0--0--0-0-0-0---------------|
PM---------------------------------------
---------
Hourglass
---------
 Intro
|--------------------------------------|
|--------------------------------------|
|--------------------------------------|
|--------------------------------------|
|-----------7h8------8h10--------------|
|-00-0-00-0-----00-0------00-0-3-7-6-2-|
  ** * ** *     ** *      ** *

|----------------------------------------|
|-----------------------------------10p9-|
|------------------------------10p9------|
|----------------------------------------|
|-----------7h8------8h12----------------|
|-00-0-00-0-----00-0------00-0-----------|
  ** * ** *     ** *      ** *
|--------------------------------------|
|--------------------------------------|
|--------------------------------------|
|--------------------------------------|
|-----------7h8------8h10--------------|
|-00-0-00-0-----00-0------00-0-3-7-6-2-|
  ** * ** *     ** *      ** *
|---------------------------------------|
|---------------------------------------|
|---------------------------------------|
|---------------------------------4h5p4-|   (x2)
|-----------6p5------5p4----------------|
|-00-0-00-0-----00-0-----7-5-00-0-------|
  ** * ** *     ** *         ** *
--------------------------------------------------------------------

|-------------|-----------------------------------|
|-------------|-----------------------------------|
|-------------|-----------------------------------|
|-------Pause-|-----------------4h5p4-------8-7-6-|
|-------------|-------6p5-------------------------|
|-0-0-0-------|-0-0-0-----0-7-5-------0-0-0-------|
  * * *         * * *     *           * * *
|-------------------------------|----------------------------------|
|-------------------------------|----------------------------------|
|-------------------------------|----------------------------------|
|-------------------------------|----------------------------------|
|-------6p5-----5p4-------------|-------6p5------------------------|
|-0-0-0-----0-0-----0-0-0-0-0-0-|-0-0-0-----0-5-0-4br--0-0-0-8-5-4-|
  * * *     * *     * * * * * *   * * *     *   *      * * *
|-------------------------------------------------------------|
|-------------------------------------------------------------|
|-------------------------------------------------------------|
|-------------------------------------------4h5p4-------8-7-6-|
|-------6h5-----5h4---------------6h5-------------------------|
|-0-0-0-----0-0-----0-0-0-0-0-0-0-----0-7-5-------0-0-0-------|
  * * *     * *     * * * * * * *     *           * * *
|------------------------------------------------------------------|
|------------------------------------------------------------------|
|------------------------------------------------------------------|
|------------------------------------------------------------------|
|-------6h5-----5h4--------------6h5-------------------------------|
|-0-0-0-----0-0-----0-0-0-0-0-0-----0-5-0-4br--0-0-0-8-5-4-0-1-3-1-|
  * * *     * *     * * * * * *     *   *      * * *       *
-----------------------------------------------------------------------

 Riff
|----------------------------------------|
|----------------------------------------|
|----------------------------------------|
|-----------------------------------10p8-|
|------13--10h12------13--10h12----------|
|-00-0---0-------00-0---0-------88-8-----|
  ** *   *       ** *   *       ** *
|--------------------------------------------|
|--------------------------------------------|
|--------------------------------------------|
|--------------------------------------------|
|------13--10h12---------13-12---------------|
|-00-0---0-------00-0-10-------10-9h10p9-6-5-|
  ** *   *       ** *  * *
|----------------------------------------|
|----------------------------------------|
|----------------------------------------|
|-----------------------------------10p8-|
|------13--10h12------13--10h12----------|
|-00-0---0-------00-0---0-------88-8-----|
  ** *   *       ** *   *       ** *
|------------------------------------------|
|------------------------------------------|
|------------------------------------------|
|------------------------------------------|
|-----13--10h12---------13-12-10-7h8p7-5-4-|
|-00-0--0-------00-0-12--------------------|
  ** *  *       ** *  * *
|----------------------------------------|
|----------------------------------------|
|----------------------------------------|
|-----------------------------------10p8-|
|------13--10h12------13--10h12----------|
|-00-0---0-------00-0---0-------88-8-----|
  ** *   *       ** *   *       ** *
|--------------------------------------------|
|--------------------------------------------|
|--------------------------------------------|
|--------------------------------------------|
|------13--10h12---------13-12---------------|
|-00-0---0-------00-0-10-------10-9h10p9-6-5-|
  ** *   *       ** *  * *
|----------------------------------------|
|----------------------------------------|
|----------------------------------------|
|-----------------------------------10p8-|
|------13--10h12------13--10h12----------|
|-00-0---0-------00-0---0-------88-8-----|
  ** *   *       ** *   *       ** *
|------------------------------------------|
|------------------------------------------|
|------------------------------------------|
|--------------------------------------5/8-|
|-----13--10h12---------13-12-10-7h8p7-3/6-|
|-00-0--0-------00-0-12--------------------|
  ** *  *       ** *  * *

-------------------------------------------------------------------

|-------------------------------------------------------------|
|-------------------------------------------------------------|
|-------------------------------------------------------------|
|-----8---5/7---8---5/7---------------8---5/7-10-10--10-10----|
|-----6---3/5---6---3/5---------------6---3/5--8--8---6--6--0-|
|-0-0---0-----0---0-----0-0-0-0-0-0-0---0-----------0-------0-|
  * *   *     *   *     * * * * * * *   *           *

|------------------------------------------------------------|
|------------------------------------------------------------|
|------------------------------------------------------------|
|-----8---5/7---8---5/7---------------8---5/7----------------| (x2)
|-----6---3/5---6---3/5---------------6---3/5--3-3---1-1--0--|
|-0-0---0-----0---0-----0-0-0-0-0-0-0---0------3-3-0-1-1--0--|
  * *   *     *   *     * * * * * * *   *          *
--------------------------------------------------------------------


|---------------------------------------------------------|
|---------------------------------------------------------|
|---------------------------------------------------------|
|-----7-------------7-------------------------------------|
|-5-6-----------5-6-----------5-6-4---------5-6-3---------|
|-------0-0-0-0-------0-0-0-0-------0-0-0-0-------0-0-0-0-|
        * * * *       * * * *       * * * *       * * * *

|--------------------------------------------------------------|
|--------------------------------------------------------------|
|--------------------------------------------------------------|
|-----7-------------7------------------------------------------|
|-5-6-----------5-6-----------5-6-4---------5-6-3--------------|
|-------0-0-0-0-------0-0-0-0-------0-0-0-0--------6-5-3-5-3-1-|
        * * * *       * * * *       * * * *        ^  Fast  ^

|---------------------------------------------------------|
|---------------------------------------------------------|
|---------------------------------------------------------|
|-----7-------------7-------------------------------------|
|-5-6-----------5-6-----------5-6-4---------5-6-3---------|
|-------0-0-0-0-------0-0-0-0-------0-0-0-0-------0-0-0-0-|
        * * * *       * * * *       * * * *       * * * *
|--------------------------------------------------|
|--------------------------------------------------|
|--------------------------------------------------|
|-----7-------------7------------------------------|
|-5-6-----------5-6-----------5-6-4---------5-6-3--|
|-------0-0-0-0-------0-0-0-0-------0-0-0-0--------|
        * * * *       * * * *       * * * *
-------------------------------------------------------------------------

|----------------------------------------------------------|
|----------------------------------------------------------|
|-------9---------------9----------------------------------|
|---7-8-7-----------7-8-7-----------7-8-6-----------7-8-5--|
|---5-6-------------5-6-------------5-6-4-----------5-6-3--|
|-0-------0-0-0-0-0-------0-0-0-0-0-------0-0-0-0-0--------|
  *       * * * * *       * * * * *       * * * * *
|---------------------------------------------------------------------|
|---------------------------------------------------------------------|
|-------9---------------9---------------------------------------------|
|---7-8-7-----------7-8-7-----------7-8-6-----------7-8-5-------------|
|---5-6-------------5-6-------------5-6-4-----------5-6-3-------------|
|-0-------0-0-0-0-0-------0-0-0-0-0-------0-0-0-0-0-------6-5-3-5-3-1-|
  *       * * * * *       * * * * *       * * * * *
|----------------------------------------------------------|
|----------------------------------------------------------|
|-------9---------------9----------------------------------|
|---7-8-7-----------7-8-7-----------7-8-6-----------7-8-5--|
|---5-6-------------5-6-------------5-6-4-----------5-6-3--|
|-0-------0-0-0-0-0-------0-0-0-0-0-------0-0-0-0-0--------|
  *       * * * * *       * * * * *       * * * * *
|-----------------------------------------------------------|
|-----------------------------------------------------------|
|-------9---------------9-----------------------------------|
|---7-8-7-----------7-8-7-----------7-8-6-----------7-8-5---|
|---5-6-------------5-6-------------5-6-4-----------5-6-3---|
|-0-------0-0-0-0-0-------0-0-0-0-0-------0-0-0-0-0---------|
  *       * * * * *       * * * * *       * * * * *
Continued From top...
|-------------------------|
|-------------------------|
|-------------------------|
|-------------------------|
|-------------6-5-4-8-6-5-|
|-6-5-4-5-4-3-------------|

The Amazing Riff (Believe me this is how you play it, I have killadelphia, Will Adler 
you how to play it, This is it, or really close to it)

|------------------|-----------------|-----------------|-----------------|
|------------------|-----------------|-----------------|-----------------|
|------------------|-----------------|-----------------|-----------------|
|------------------|---------11------|-----------------|-----------------|
|---------12-------|-----------12-13-|---------12------|--------13-12-11-|
|-0-12-13----13-12-|-0-12-13---------|-0-12-13---13-12-|-0-13-10---------|
  *  *  *     *  *   *  *  *           *  *  *    *  *   *  *  *
|------------------|-----------------|-----------------|-------------|
|------------------|-----------------|-----------------|-------------|
|------------------|-----------------|-----------------|-------------|
|------------------|---------11------|-----------------|-------------|
|---------12-------|-----------12-13-|---------12------|-------------|
|-0-12-13----13-12-|-0-12-13---------|-0-12-13---13-12-|-5-8-4-7-6-3-| (x4)
  *  *  *     *  *   *  *  *           *  *  *    *  *   * * * * * *
---------------------------------------------------------------------------

|-----------------|------------------|-----------------|
|-----------------|------------------|-----------------|
|-----------------|------------------|-----------------|
|-----------------|------------------|-----------------|
|-0---------------|--1---------------|--3--------------|
|-0--5-8-4-7-6-3--|--1--5-8-4-7-6-3--|--3--5-8-4-7-6-3-|
     * * * * * *        * * * * * *        * * * * * *
|-----------------------|
|-----------------------|
|-----------------------|
|-----------------------|(x4)
|-5h6p5-8-6-------------|
|-----------5-8-4-7-6-3-|
            * * * * * *
-------------------------------------------------------------------------
 BreakDown
|-------------------------------|
|-------------------------------|
|-------------------------------|
|-------------------------------| (x4)
|-------------------------------|
|-0-0-0-0-0-0-0-0-0-0-0-0-0-0-0-|
  * * * * * * * * * * * * * * *
-------------------------------------------------------------------------

|-------|
|-------|
|-------|
|-------|
|-------|
|-0-12/-|
  *
 Continued From top Slide
|------------------|-----------------|-----------------|-----------------|
|------------------|-----------------|-----------------|-----------------|
|------------------|-----------------|-----------------|-----------------|
|------------------|---------11------|-----------------|-----------------|
|---------12-------|-----------12-13-|---------12------|--------13-12-11-|
|-0-12-13----13-12-|-0-12-13---------|-0-12-13---13-12-|-0-13-10---------|
  *  *  *     *  *   *  *  *           *  *  *    *  *   *  *  *
|------------------|-----------------|-----------------|-------------|
|------------------|-----------------|-----------------|-------------|
|------------------|-----------------|-----------------|-------------|
|------------------|---------11------|-----------------|-------------| (x6)
|---------12-------|-----------12-13-|---------12------|-------------|
|-0-12-13----13-12-|-0-12-13---------|-0-12-13---13-12-|-5-8-4-7-6-3-|
  *  *  *     *  *   *  *  *           *  *  *    *  *   * * * * * *

Ring On

|---------|
|---------|
|---------|
|---------|
|-0~~~~~~-|
|-0~~~~~~-|

-----------------------------------
Now You've Got Something To Die For
-----------------------------------
                                                          7x
E||---------------------------|---------------------------||
B||---------------------------|---------------------------||
G||*--------------------------|--------------------------*||
D||*--------------------------|--------------------------*||
A||---------------------------|---------------------------||
D||---2--3--1--2--3--0--2--3--|--2--3--1--2--3--0--6--5---||



---------------------------|--------------------------|
---------------------------|--------------------------|
*--------------------------|--------------------------|
*--------------------------|--------------------------|
---2--1--2--3--2--3--1--3--|--2--1--2--3--2--0--2--3--|
---2--1--2--3-----3-----3--|--2--1--2--3--2--0--2--3--|


                                                       3x
--------------------------|----------------------------||-------------------|
--------------------------|----------------------------||-------------------|
--------------------------|---------------------------*||-------------------|
--------------------------|---------------------------*||-------------------|
--2--1--5--3--4--4--5--3--|--2--1--2--3---------2--1---||--0----------------|
--2--1-----3-----4--5--3--|--2--1--2--3--4-5-4--2--1---||--0----------------|



------------------|------------------|-----------------------|
------------------|------------------|-----------------------|
------------------|------------------|-----------------------|
------------------|------------------|-----------------------|
------------------|------------------|-----------------------|
------------------|------------------|----------13--1--0--1--|



-------------------|------------------|---------------------------|
-------------------|------------------|---------------------------|
-------------------|------------------|---------------------------|
-------------------|------------------|---------------------------|
--0----------------|------------------|---------------------------|
--0----------------|------------------|--1--0--1--3--4-5-4--1--0--|



--------------------------|--------------------------|
--------------------------|--------------------------|
--------------------------|--------------------------|
--------------------------|--------------------------|
--1--0--------------7--6--|--------------------------|
--------5--4--0--1--7--6--|--0--0--0--0--0--0--0--0--|



------------------------------|------------------------------|
------------------------------|------------------------------|
------------------------------|------------------------------|
------------------------------|------------------------------|
------------------------------|------------------------------|
--11--15--14--10--0--0--0--0--|--13--17--16--13--0--0--0--0--|



---------------------------|--------------------------|
---------------------------|--------------------------|
---------------------------|--------------------------|
---------------------------|--------------------------|
---------------------------|--------------------------|
--0--0--0--0--13--1--0--1--|--0--0--0--0--0--0--0--0--|



------------------------------|--------------------------|
------------------------------|--------------------------|
------------------------------|--------------------------|
------------------------------|--------------------------|
------------------------------|--------------------------|
--11--15--14--10--0--0--1--0--|--1--4--3--0--5--4--0--8--|



----------------------------|--------------------------|
----------------------------|--------------------------|
----------------------------|--------------------------|
----------------------------|--------------------------|
----------------------------|--------------------------|
--0--4--3--0--3--7--12--13--|--0--0--0--0--0--0--0--0--|



------------------------------|------------------------------|
------------------------------|------------------------------|
------------------------------|------------------------------|
------------------------------|------------------------------|
------------------------------|------------------------------|
--11--15--14--10--0--0--0--0--|--13--17--16--13--0--0--0--0--|



---------------------------|--------------------------|
---------------------------|--------------------------|
---------------------------|--------------------------|
---------------------------|--------------------------|
---------------------------|--------------------------|
--0--0--0--0--13--1--0--1--|--0--0--0--0--0--0--0--0--|



------------------------------|---------------------------|
------------------------------|---------------------------|
------------------------------|---------------------------|
------------------------------|---------------------------|
------------------------------|---------------------------|
--11--15--14--10--0--0--0--0--|--1--0--1--3--4-5-4--1--0--|



--------------------------||---------------------------|
--------------------------||---------------------------|
--------------------------||*--------------------------|
--------------------------||*--------------------------|
--1--0--------------7--6--||---------------------------|
--------5--4--0--1--7--6--||---2--3--1--2--3--0--2--3--|


                           3x
---------------------------||--------------------------|
---------------------------||--------------------------|
--------------------------*||--------------------------|
--------------------------*||--------------------------|
---------------------------||--------------------------|
--2--3--1--2--3--0--6--5---||--0--0--0--0--0--0--0--0--|



------------------------------|------------------------------|
------------------------------|------------------------------|
------------------------------|------------------------------|
------------------------------|------------------------------|
------------------------------|------------------------------|
--11--15--14--10--0--0--0--0--|--13--17--16--13--0--0--0--0--|



---------------------------|--------------------------|
---------------------------|--------------------------|
---------------------------|--------------------------|
---------------------------|--------------------------|
---------------------------|--------------------------|
--0--0--0--0--13--1--0--1--|--0--0--0--0--0--0--0--0--|



------------------------------|---------------------------|
------------------------------|---------------------------|
------------------------------|---------------------------|
------------------------------|---------------------------|
------------------------------|---------------------------|
--11--15--14--10--0--0--0--0--|--1--0--1--3--4-5-4--1--0--|



--------------------------|--------------------------|
--------------------------|--------------------------|
--------------------------|--------------------------|
--------------------------|--------------------------|
--1--0--------------7--6--|--------------------------|
--------5--4--0--1--7--6--|--0--0--0--0--0--0--0--0--|



------------------------------|------------------------------|
------------------------------|------------------------------|
------------------------------|------------------------------|
------------------------------|------------------------------|
------------------------------|------------------------------|
--11--15--14--10--0--0--0--0--|--13--17--16--13--0--0--0--0--|



---------------------------|--------------------------|
---------------------------|--------------------------|
---------------------------|--------------------------|
---------------------------|--------------------------|
---------------------------|--------------------------|
--0--0--0--0--13--1--0--1--|--0--0--0--0--0--0--0--0--|



------------------------------|--------------------------|
------------------------------|--------------------------|
------------------------------|--------------------------|
------------------------------|--------------------------|
------------------------------|--------------------------|
--11--15--14--10--0--0--1--0--|--1--4--3--0--5--4--0--8--|



----------------------------||----------------------------|
----------------------------||----------------------------|
----------------------------||*---------------------------|
----------------------------||*---------------------------|
----------------------------||----------------------------|
--0--4--3--0--3--7--12--13--||---2-2-2--2-2-2--2-2-2------|



---------------------------|---------------------------|
---------------------------|---------------------------|
---------------------------|---------------------------|
---------------------------|---------------------------|
---------------------------|---------------------------|
--2-2-2--2-2-2--2-2-2------|--2-2-2--2-2-2--2-2-2------|



------------------------||--------------------------------|
------------------------||--------------------------------|
-----------------------*||*-------------------------------|
-----------------------*||*-------------------------------|
------------------------||-----------------10--9----------|
--2-2-2--2-2-2--3-3-3---||---0-0-0--0-0-0---------13--12--|



--------------------------------|-------------------------------|
--------------------------------|-------------------------------|
--------------------------------|-------------------------------|
--------------------------------|-------------------------------|
----------------13--12----------|----------------10--9----------|
--0-0-0--0-0-0----------15--14--|--0-0-0--0-0-0---------13--12--|



-------------------------||------------------------------|
-------------------------||------------------------------|
------------------------*||*-----------------------------|
------------------------*||*-----------------------------|
--13--12-----------------||---------------10--9----------|
----------15--14--0--1---||---0--0--0--0---------13--12--|



------------------------------|-----------------------------|
------------------------------|-----------------------------|
------------------------------|-----------------------------|
------------------------------|-----------------------------|
--------------13--12----------|--------------10--9----------|
--0--0--0--0----------15--14--|--0--0--0--0---------13--12--|



-------------------------------||------------------------------|
-------------------------------||------------------------------|
------------------------------*||*-----------------------------|
------------------------------*||*-----------------------------|
--13--12-----------------------||---------------10--9----------|
----------15--14--0--1--4--3---||---0--0--0--0---------13--12--|



------------------------------|-----------------------------|
------------------------------|-----------------------------|
------------------------------|-----------------------------|
------------------------------|-----------------------------|
--------------13--12----------|--------------10--9----------|
--0--0--0--0----------15--14--|--0--0--0--0---------13--12--|



-------------------------------||------------------|---------------------------|
-------------------------------||------------------|---------------------------|
------------------------------*||------------------|---------------------------|
------------------------------*||------------------|---------------------------|
--13--12-----------------------||------------------|--0-0-0--0--0----0--0-0-0--|
----------15--14--0--1--4--3---||------------------|--0-0-0--0--0----0--0-0-0--|



--------------------------|---------------------------|------------------------|
--------------------------|---------------------------|------------------------|
--------------------------|---------------------------|------------------------|
--------------------------|---------------------------|------------------------|
--1--0--3--0--------------|--0-0-0--0--0----0--0-0-0--|------------------------|
--1--0--3--0--3--4--3--1--|--0-0-0--0--0----0--0-0-0--|--12b-----12b-----12/---|



|----------------------------|--------------------------|
|----------------------------|--------------------------|
|*---------------------------|--------------------------|
|*---------------------------|--------------------------|
|---0-0-0--0--0--0--0--0--0--|--1--0--3--0--------------|
|---0-0-0--0--0--0--0--0--0--|--1--0--3--0--3--4--3--1--|


                                                     2x
---------------------------|-------------------------||
---------------------------|-------------------------||
---------------------------|------------------------*||
---------------------------|------------------------*||
--0-0-0--0--0----0--0-0-0--|-------------------------||
--0-0-0--0--0----0--0-0-0--|--12b-----12b-----12/----||



---------------------------|--------------------------|
---------------------------|--------------------------|
*--------------------------|--------------------------|
*--------------------------|--------------------------|
---1--0--0--0--0--0--0--0--|--1--0--3--0--3--4--3--1--|
---1--0--0--0--0--0--0--0--|--1--0--3--0--3--4--3--1--|


                                                    2x
--------------------------|-------------------------||
--------------------------|-------------------------||
--------------------------|------------------------*||
--------------------------|------------------------*||
--1--0--0--0--0--0--0--0--|-------------------------||
--1--0--0--0--0--0--0--0--|--12b-----12b-----12/----||



--------------------------|--------------------------|----|----|
--------------------------|--------------------------|----|----|
--------------------------|--------------------------|----|----|
--------------------------|--------------------------|----|----|
--1--0--0--0--0--0--0--0--|--1--0--3--0--3--4--3--1--|----|----|
--1--0--0--0--0--0--0--0--|--1--0--3--0--3--4--3--1--|----|----|



|----------------------------|--------------------------|
|----------------------------|--------------------------|
|*---------------------------|--------------------------|
|*---------------------------|--------------------------|
|---0-0-0--0--0--0--0--0--0--|--1--0--3--0--3--4--3--1--|
|---0-0-0--0--0--0--0--0--0--|--1--0--3--0--3--4--3--1--|


                                                  2x
---------------------------|----------------------||---------------------------|
---------------------------|----------------------||---------------------------|
---------------------------|---------------------*||---------------------------|
---------------------------|---------------------*||---------------------------|
--0-0-0--0--0--0--0--0--0--|----------------------||--0-0-0--0--0--0--0--0--0--|
--0-0-0--0--0--0--0--0--0--|--1b-----1b-----1b----||--0-0-0--0--0--0--0--0--0--|



--------------------------||
--------------------------||
--------------------------||
--------------------------||
--1--0--3--0--3--4--3--1--||
--1--0--3--0--3--4--3--1--||


                      Now You've Got Something To Die For


Mark Morton
                                                          7x
E||---------------------------|---------------------------||
B||---------------------------|---------------------------||
G||*--------------------------|--------------------------*||
D||*--------------------------|--------------------------*||
A||---------------------------|---------------------------||
D||---2--3--1--2--3--0--2--3--|--2--3--1--2--3--0--6--5---||



---------------------------|--------------------------|
---------------------------|--------------------------|
*--------------------------|--------------------------|
*--------------------------|--------------------------|
---2--1--2--3--2--3--1--3--|--2--1--2--3--2--0--2--3--|
---2--1--2--3-----3-----3--|--2--1--2--3--2--0--2--3--|


                                                       3x
--------------------------|----------------------------||
--------------------------|----------------------------||
--------------------------|---------------------------*||
--------------------------|---------------------------*||
--2--1--5--3--4--4--5--3--|--2--1--2--3---------2--1---||
--2--1-----3-----4--5--3--|--2--1--2--3--4-5-4--2--1---||




--------------------------|------------------------------|
--------------------------|------------------------------|
--------------------------|------------------------------|
--------------------------|------------------------------|
--------------------------|------------------------------|
--0--0--0--0--0--0--0--0--|--11--15--14--10--0--0--0--0--|



------------------------------|---------------------------|
------------------------------|---------------------------|
------------------------------|---------------------------|
------------------------------|---------------------------|
------------------------------|---------------------------|
--13--17--16--13--0--0--0--0--|--0--0--0--0--13--1--0--1--|



--------------------------|------------------------------|
--------------------------|------------------------------|
--------------------------|------------------------------|
--------------------------|------------------------------|
--------------------------|------------------------------|
--0--0--0--0--0--0--0--0--|--11--15--14--10--0--0--0--0--|



---------------------------|--------------------------|
---------------------------|--------------------------|
---------------------------|--------------------------|
---------------------------|--------------------------|
---------------------------|--1--0--------------7--6--|
--1--0--1--3--4-5-4--1--0--|--------5--4--0--1--7--6--|



--------------------------|------------------------------|
--------------------------|------------------------------|
--------------------------|------------------------------|
--------------------------|------------------------------|
--------------------------|------------------------------|
--0--0--0--0--0--0--0--0--|--11--15--14--10--0--0--0--0--|



------------------------------|---------------------------|
------------------------------|---------------------------|
------------------------------|---------------------------|
------------------------------|---------------------------|
------------------------------|---------------------------|
--13--17--16--13--0--0--0--0--|--0--0--0--0--13--1--0--1--|



--------------------------|------------------------------|
--------------------------|------------------------------|
--------------------------|------------------------------|
--------------------------|------------------------------|
--------------------------|------------------------------|
--0--0--0--0--0--0--0--0--|--11--15--14--10--0--0--1--0--|



--------------------------|----------------------------|
--------------------------|----------------------------|
--------------------------|----------------------------|
--------------------------|----------------------------|
--------------------------|----------------------------|
--1--4--3--0--5--4--0--8--|--0--4--3--0--3--7--12--13--|



--------------------------|------------------------------|
--------------------------|------------------------------|
--------------------------|------------------------------|
--------------------------|------------------------------|
--------------------------|------------------------------|
--0--0--0--0--0--0--0--0--|--11--15--14--10--0--0--0--0--|



------------------------------|---------------------------|
------------------------------|---------------------------|
------------------------------|---------------------------|
------------------------------|---------------------------|
------------------------------|---------------------------|
--13--17--16--13--0--0--0--0--|--0--0--0--0--13--1--0--1--|



--------------------------|------------------------------|
--------------------------|------------------------------|
--------------------------|------------------------------|
--------------------------|------------------------------|
--------------------------|------------------------------|
--0--0--0--0--0--0--0--0--|--11--15--14--10--0--0--0--0--|



---------------------------|--------------------------|
---------------------------|--------------------------|
---------------------------|--------------------------|
---------------------------|--------------------------|
---------------------------|--1--0--------------7--6--|
--1--0--1--3--4-5-4--1--0--|--------5--4--0--1--7--6--|


                                                        3x
|---------------------------|---------------------------||
|---------------------------|---------------------------||
|*--------------------------|--------------------------*||
|*--------------------------|--------------------------*||
|---------------------------|---------------------------||
|---2--3--1--2--3--0--2--3--|--2--3--1--2--3--0--6--5---||



--------------------------|------------------------------|
--------------------------|------------------------------|
--------------------------|------------------------------|
--------------------------|------------------------------|
--------------------------|------------------------------|
--0--0--0--0--0--0--0--0--|--11--15--14--10--0--0--0--0--|



------------------------------|---------------------------|
------------------------------|---------------------------|
------------------------------|---------------------------|
------------------------------|---------------------------|
------------------------------|---------------------------|
--13--17--16--13--0--0--0--0--|--0--0--0--0--13--1--0--1--|



--------------------------|------------------------------|
--------------------------|------------------------------|
--------------------------|------------------------------|
--------------------------|------------------------------|
--------------------------|------------------------------|
--0--0--0--0--0--0--0--0--|--11--15--14--10--0--0--0--0--|



---------------------------|--------------------------|
---------------------------|--------------------------|
---------------------------|--------------------------|
---------------------------|--------------------------|
---------------------------|--1--0--------------7--6--|
--1--0--1--3--4-5-4--1--0--|--------5--4--0--1--7--6--|



--------------------------|------------------------------|
--------------------------|------------------------------|
--------------------------|------------------------------|
--------------------------|------------------------------|
--------------------------|------------------------------|
--0--0--0--0--0--0--0--0--|--11--15--14--10--0--0--0--0--|



------------------------------|---------------------------|
------------------------------|---------------------------|
------------------------------|---------------------------|
------------------------------|---------------------------|
------------------------------|---------------------------|
--13--17--16--13--0--0--0--0--|--0--0--0--0--13--1--0--1--|



--------------------------|------------------------------|
--------------------------|------------------------------|
--------------------------|------------------------------|
--------------------------|------------------------------|
--------------------------|------------------------------|
--0--0--0--0--0--0--0--0--|--11--15--14--10--0--0--1--0--|



--------------------------|----------------------------|
--------------------------|----------------------------|
--------------------------|----------------------------|
--------------------------|----------------------------|
--------------------------|----------------------------|
--1--4--3--0--5--4--0--8--|--0--4--3--0--3--7--12--13--|



|----------------------------|---------------------------|
|----------------------------|---------------------------|
|*---------------------------|---------------------------|
|*---------------------------|---------------------------|
|----------------------------|---------------------------|
|---2-2-2--2-2-2--2-2-2------|--2-2-2--2-2-2--2-2-2------|



---------------------------|------------------------||
---------------------------|------------------------||
---------------------------|-----------------------*||
---------------------------|-----------------------*||
---------------------------|------------------------||
--2-2-2--2-2-2--2-2-2------|--2-2-2--2-2-2--3-3-3---||



--------------------------------|--------------------------------|
--------------------------------|--------------------------------|
*-------------------------------|--------------------------------|
*-------------------------------|--------------------------------|
-----------------10--9----------|----------------13--12----------|
---0-0-0--0-0-0---------13--12--|--0-0-0--0-0-0----------15--14--|



-------------------------------|-----------------------||
-------------------------------|-----------------------||
-------------------------------|----------------------*||
-------------------------------|----------------------*||
----------------10--9----------|-----------------------||
--0-0-0--0-0-0---------13--12--|--0-0-0--0-0-0--0--1---||



------------------------------|------------------------------|
------------------------------|------------------------------|
*-----------------------------|------------------------------|
*-----------------------------|------------------------------|
---------------10--9----------|--------------13--12----------|
---0--0--0--0---------13--12--|--0--0--0--0----------15--14--|



-----------------------------|-------------------------------||
-----------------------------|-------------------------------||
-----------------------------|------------------------------*||
-----------------------------|------------------------------*||
--------------10--9----------|--13--12-----------------------||
--0--0--0--0---------13--12--|----------15--14--0--1--4--3---||



------------------------------|------------------------------|
------------------------------|------------------------------|
*-----------------------------|------------------------------|
*-----------------------------|--------------12--11----------|
---------------13--12--10--9--|----------------------13--12--|
---0--0--0--0-----------------|--0--0--0--0------------------|



-----------------------------|-------------------------------||
-----------------------------|-------------------------------||
-----------------------------|------------------------------*||
-----------------------------|--12--11----------------------*||
--------------13--12--10--9--|----------13--12---------------||
--0--0--0--0-----------------|------------------0--1--4--3---||



------------------------|---------------------------|--------------------------|
------------------------|---------------------------|--------------------------|
------------------------|---------------------------|--------------------------|
------------------------|---------------------------|--------------------------|
--17b-----17b-----17/---|--0-0-0--0--0----0--0-0-0--|--1--0--3--0--------------|
--12b-----12b-----12/---|--0-0-0--0--0----0--0-0-0--|--1--0--3--0--3--4--3--1--|



---------------------------|------------------------|
---------------------------|------------------------|
---------------------------|------------------------|
---------------------------|------------------------|
--0-0-0--0--0----0--0-0-0--|--17b-----17b-----17/---|
--0-0-0--0--0----0--0-0-0--|------------------------|



|----------------------------|--------------------------|
|----------------------------|--------------------------|
|*---------------------------|--------------------------|
|*---------------------------|--------------------------|
|---0-0-0--0--0--0--0--0--0--|--1--0--3--0--------------|
|---0-0-0--0--0--0--0--0--0--|--1--0--3--0--3--4--3--1--|


                                                     2x
---------------------------|-------------------------||
---------------------------|-------------------------||
---------------------------|------------------------*||
---------------------------|------------------------*||
--0-0-0--0--0----0--0-0-0--|--17b-----17b-----17/----||
--0-0-0--0--0----0--0-0-0--|-------------------------||



---------------------------|--------------------------|
---------------------------|--------------------------|
*--------------------------|--------------------------|
*--------------------------|--------------------------|
---1--0--0--0--0--0--0--0--|--1--0--3--0--3--4--3--1--|
---1--0--0--0--0--0--0--0--|--1--0--3--0--3--4--3--1--|


                                                    2x
--------------------------|-------------------------||
--------------------------|-------------------------||
--------------------------|------------------------*||
--------------------------|------------------------*||
--1--0--0--0--0--0--0--0--|--17b-----17b-----17/----||
--1--0--0--0--0--0--0--0--|-------------------------||



--------------------------|--------------------------|------|------|
--------------------------|--------------------------|------|------|
--------------------------|--------------------------|------|------|
--------------------------|--------------------------|------|------|
--1--0--0--0--0--0--0--0--|--1--0--3--0--3--4--3--1--|------|------|
--1--0--0--0--0--0--0--0--|--1--0--3--0--3--4--3--1--|------|------|



|----------------------------|--------------------------|
|----------------------------|--------------------------|
|*---------------------------|--------------------------|
|*---------------------------|--------------------------|
|---0-0-0--0--0--0--0--0--0--|--1--0--3--0--3--4--3--1--|
|---0-0-0--0--0--0--0--0--0--|--1--0--3--0--3--4--3--1--|


                                                  2x
---------------------------|----------------------||---------------------------|
---------------------------|----------------------||---------------------------|
---------------------------|---------------------*||---------------------------|
---------------------------|---------------------*||---------------------------|
--0-0-0--0--0--0--0--0--0--|----------------------||--0-0-0--0--0--0--0--0--0--|
--0-0-0--0--0--0--0--0--0--|--1b-----1b-----1b----||--0-0-0--0--0--0--0--0--0--|



--------------------------||
--------------------------||
--------------------------||
--------------------------||
--1--0--3--0--3--4--3--1--||
--1--0--3--0--3--4--3--1--||


--------------
The Faded Line
--------------
    Q=190
   4/4
    Gtrs I, II
    PM--|   PM  PM  PM    PM  PM  PM  PM------|   PM  PM  PM    PM  PM  PM  PM
    S S E E E E E E E   E E E E E E E E   S S E E E E E E E   E E E E E E E E
||--------------------|-----------------|-------------------|-----------------|
||o-------------------|-----------------|-------------------|-----------------|
||--------------------|-----------------|-------------------|-----------------|
||--------------------|-----------------|-------------------|-----------------|
||o-------9---9---9---|-9---9---9---9---|-------8---8---8---|-8---8---8---8---|
||--0-0-0---0---0---0-|---0---0---0---0-|-0-0-0---0---0---0-|---0---0---0---0-|


  PM--|    PM   PM   PM    PM  PM  PM  PM-
  S S E  E E  E E  E E   E E E E E E E E
|----------------------|-----------------|
|----------------------|-----------------|
|----------------------|-----------------|
|----------------------|-----------------|
|-------11---11---11---|-6---6---6---6---|
|-0-0-0----0----0----0-|---0---0---0---0-|


 -----|   PM  PM  PM
  S S E E E E E E E    E E E E E E  E E    4x
|-------------------|----------------------||
|-------------------|---------------------o||
|-------------------|--------7-------------||
|-------------------|-10-8-7---8-----------||
|-------5---5---5---|------------9-10-6---o||
|-0-0-0---0---0---0-|----------------------||


                             6/4
    PM----------------------------------------------|
    S S E S S E S S E S S E   S S E S S E S S E S S E H
||--------------------------|------------------------------|
||o-------------------------|------------------------------|
||--------------------------|------------------------------|
||--------------------------|------------------------------|
||o-------------------------|------------------------------|
||--0-0-0-0-0-0-0-0-0-0-0-0-|-0-0-0-0-0-0-0-0-0-0-0-0------|


 4/4                       6/4
  PM--------------------------------------------|
  S S E S S E S S E S S E   S S E S S E S S E S S H    +E
|-------------------------|-----------------------------------|
|-------------------------|-----------------------------------|
|-------------------------|-----------------------------------|
|-------------------------|-----------------------3----(3)----|
|-------------------------|-----------------------3----(3)----|
|-0-0-0-0-0-0-0-0-0-0-0-0-|-0-0-0-0-0-0-0-0-0-0-0-3----(3)----|


 4/4
  PM----------------------------------|
  S S E S S E S S E S S E   S S E S S E  H
|-------------------------|-------------------|
|-------------------------|-------------------|
|-------------------------|-------------------|
|-------------------------|-------------------|
|-------------------------|-------------------|
|-3-3-3-3-3-3-3-3-3-3-3-3-|-3-3-3-3-3-3-------|


  PM----------------------------------------------|
  S S E S S E S S E S S E   S S E S S E S S S S E E
|-------------------------|-----------------------------||
|-------------------------|----------------------------o||
|-------------------------|-----------------------------||
|-------------------------|-----------------------------||
|-------------------------|----------------------------o||
|-3-3-3-3-3-3-3-3-3-4-4-4-|-4-4-4-7-3-0-6-3-0-3-0-0-----||


  Gtr I
  PM----------------------|
  E E E E E E E E   E E E E  S  S S  S  S S  E
|-----------------|-------------------------------|
|-----------------|-------------------------------|
|-----------------|-------------------------------|
|-----------------|-------------------------------|
|-----------------|-------------------------------|
|-0-0-0-0-0-0-0-0-|-0-0-0-0-19-15-0-18-15-0-15----|


                            Gtrs I, II
  E E E E E E E E   E E E E S Q..
|-----------------|------------------|
|-----------------|------------------|
|-----------------|------------------|
|-----------------|---------0-8------|
|-----------------|---------0-8------|
|-0-0-0-0-0-0-0-0-|-0-0-0-0-0-8\-----|


    PM------------------------|
    E E E E  E E E E    E E E E   S  S S  S   S S  E     4x
||--------------------|----------------------------------||
||o-------------------|---------------------------------o||
||--------------------|----------------------------------||
||--------------------|----------------------------------||
||o-------------------|---------------------------------o||
||--0-0-0-0--0-0-0-0--|-0-0-0-0--19-15-0-18--15-0-15-----||


    PM----------------------------------|
    E S S E S S E S S E S S   E S S E S S  S  S S  S  S S  E     4x
||--------------------------|------------------------------------||
||o-------------------------|-----------------------------------o||
||--------------------------|------------------------------------||
||--------------------------|------------------------------------||
||o-------------------------|-----------------------------------o||
||--0-0-0-0-0-0-0-0-0-0-0-0-|-0-0-0-0-0-0-19-15-0-18-15-0-15-----||


    Q=180
    PM--|   PM|   PM|    PM|     PM|    PM|   PM|
    S S E E S S E S S  E S S   E S S  E S S E S S Q
||---------------------------|-------------------------|
||o--------------------------|-------------------------|
||---------------------------|-------------------------|
||---------------------------|-7-----------------------|
||o-------7-----8-----10-----|-------10-----8-----7----|
||--8-8-8---8-8---8-8----8-8-|---8-8----8-8---8-8------|


  PM--|   PM|   PM|   PM|     PM|   PM|
  S S E E S S E S S E S S   E S S E S S S S E S S E
|-------------------------|----------------------------|
|-------------------------|----------------------------|
|-------------------------|----------------------------|
|-------------------5-----|-7-----5--------------------|
|-------7-----8-----------|-------------5h7p5-4h5p4----|
|-5-5-5---5-5---5-5---5-5-|---5-5---5-5----------------|


  Q=190
  PM----------------------------------|
  E S S E S S E S S E S S   E S S E S S  S  S S  S  S S  E
|-------------------------|-----------------------------------|
|-------------------------|-----------------------------------|
|-------------------------|-----------------------------------|
|-------------------------|-----------------------------------|
|-------------------------|-----------------------------------|
|-0-0-0-0-0-0-0-0-0-0-0-0-|-0-0-0-0-0-0-19-15-0-18-15-0-15----|


  PM----------------------------------|
  E S S E S S E S S E S S   E S S E S S  S  S S  S  S S  E
|-------------------------|------------------------------------||
|-------------------------|-----------------------------------o||
|-------------------------|------------------------------------||
|-------------------------|------------------------------------||
|-------------------------|-----------------------------------o||
|-0-0-0-0-0-0-0-0-0-0-0-0-|-0-0-0-0-0-0-19-15-0-18-15-0-15-----||


    Q=190
    S S S S S S S S H      S S S S S S S S H     S S S S S S S S H
||-----------------------|---------------------|-------------------|
||o----------------------|---------------------|-------------------|
||-----------------------|---------------------|-------------------|
||-----------------------|---------------------|-------------------|
||o-0-0-0-0-0-0-0-0------|-0-0-0-0-0-0-0-0-----|-0-0-0-0-0-0-0-0---|
||--0-0-0-0-0-0-0-0------|-0-0-0-0-0-0-0-0-----|-0-0-0-0-0-0-0-0---|


  S S S S S S S S S S S S S S E
|-----------------------------------||
|----------------------------------o||
|-----------------------------------||
|-----------------------------------||
|-0-0-0-0-0-0-0-0-2-0-2-2-2-2------o||
|-0-0-0-0-0-0-0-0-2-0-2-2-2-2-------||


    Q=190
    Gtr I
    S S S S  S  S  S  S H
||---------------------------|
||o--------------------------|
||---------------------------|
||---------------------------|
||o-0-0-0-0--0--0--0--0------|
||--0-0-0-0--0--0--0--0------|
|
|   Gtr II
|   H        E  E  E  E
||---------------------------|
||o--------------------------|
||---------------------------|
||---------------------------|
||o--------------------------|
||----------12h13-12h13------|


   S S  S  S S  S  S  S H     S S S S  S  S  S  S H
|---------------------------|-----------------------|
|---------------------------|-----------------------|
|---------------------------|-----------------------|
|---------------------------|-----------------------|
|--0-0--0--0-0--0--0--0-----|-0-0-0-0--0--0--0--0---|
|--0-0--0--0-0--0--0--0-----|-0-0-0-0--0--0--0--0---|
|
|  ~~
|  Q    E  Q    E  E  E       H        E  E  E  E
|---------------------------|-----------------------|
|---------------------------|-----------------------|
|---------------------------|-----------------------|
|---------------------------|-----------------------|
|---------------------------|-----------------------|
|-17---13p12---13-13-10-----|---------12h13-12h13---|


  Gtr I
   S S  S  S S  S S  S H
|------------------------------||
|-----------------------------o||
|------------------------------||
|------------------------------||
|--0-0--0--0-0--0-0--0--------o||
|--0-0--0--0-0--0-0--0---------||
|
| Gtr II
|  ~~
|  Q    E  Q    E    E   E
|------------------------------||
|-----------------------------o||
|------------------------------||
|------------------------------||
|-----------------------------o||
|-17---13-12---13---10---------||


    Q=190
    Gtr I
    S S S S  S  S  S  S H
||---------------------------|
||o--------------------------|
||---------------------------|
||---------------------------|
||o-0-0-0-0--0--0--0--0------|
||--0-0-0-0--0--0--0--0------|
|
|   Gtr II
|   H        E  E  E  E
||---------------------------|
||o--------------------------|
||---------------------------|
||---------------------------|
||o--------------------------|
||----------12h13-12h13------|
|
|   Gtr III
|   H        E  E  E  E
||---------------------------|
||o--------------------------|
||---------------------------|
||---------------------------|
||o---------12h13-12h13------|
||---------------------------|


   S S  S  S S  S  S  S H     S S S S  S  S  S  S H
|---------------------------|-----------------------|
|---------------------------|-----------------------|
|---------------------------|-----------------------|
|---------------------------|-----------------------|
|--0-0--0--0-0--0--0--0-----|-0-0-0-0--0--0--0--0---|
|--0-0--0--0-0--0--0--0-----|-0-0-0-0--0--0--0--0---|
|
|  ~~
|  Q    E  Q    E  E  E       H        E  E  E  E
|---------------------------|-----------------------|
|---------------------------|-----------------------|
|---------------------------|-----------------------|
|---------------------------|-----------------------|
|---------------------------|-----------------------|
|-17---13p12---13-13-10-----|---------12h13-12h13---|
|
|  ~~
|  Q    E  Q    E  E  E       H        E  E  E  E
|---------------------------|-----------------------|
|---------------------------|-----------------------|
|---------------------------|-----------------------|
|---------------------------|-----------------------|
|-17---13p12---13-13-10-----|---------12h13-12h13---|
|---------------------------|-----------------------|


  1.                               2.
  Gtr I
   S S S S  S S  S S H              S S S S  S S  S S S S  S S  S S S S
|-------------------------------||-----------------------------------------|
|------------------------------o||-----------------------------------------|
|-------------------------------||-----------------------------------------|
|-------------------------------||-----------------------------------------|
|--0-0-0-0--0-0--0-0-----------o||--0-0-0-0--0-0--0-0-0-0--0-0--0-0-0-0----|
|--0-0-0-0--0-0--0-0------------||--0-0-0-0--0-0--0-0-0-0--0-0--0-0-0-0----|
|
| Gtr II
|  ~~                               ~~
|  Q        E    Q      E  E E      Q        E    Q        E    E   E
|-------------------------------||-----------------------------------------|
|------------------------------o||-----------------------------------------|
|-------------------------------||-----------------------------------------|
|-------------------------------||-----------------------------------------|
|------------------------------o||-----------------------------------------|
|-17-------13---12-----13-10----||-17-------13---12-------13---10----------|
|
| Gtr III
|  ~~                               ~~
|  Q        E    Q      E  E E      Q        E    Q        E    E   E
|-------------------------------||-----------------------------------------|
|------------------------------o||-----------------------------------------|
|-------------------------------||-----------------------------------------|
|-------------------------------||-----------------------------------------|
|-17-------13---12-----13-10---o||-17-------13---12-------13---10----------|
|-------------------------------||-----------------------------------------|


    Q=180
    Gtrs I, II
    PM|   PM|   PM    PM|   PM|   PM
    E E E E E E E E   E E E E E E E E
||------------------|-----------------|
||o-----------------|-----------------|
||------------------|-----------------|
||------8-----8---7-|-----7-----7---4-|
||o-----7-----7---6-|-----6-----6---6-|
||--9-9---9-9---9---|-8-8---8-8---8---|


                1.,2.,3.
  PM|   PM|   PM    PM|   PM----------------|
  E E E E E E E E   E E E S S S S S S S S S S     4x
|-----------------|-------------------------------||
|-----------------|------------------------------o||
|-----------------|-------------------------------||
|-----4-----4---3-|-----3-------------------------||
|-----6-----6---5-|-----5------------------------o||
|-5-5---5-5---5---|-4-4---4-4-7-3-0-6-3-0-3-0-----||


  4.
    PM|   PM----|
  E E E E E S S E E
|-----------------------|
|-----------------------|
|-7-----7---------7\----|
|-7-----7---------7\----|
|-5-----5---------5\----|
|---4-4---4-0-0-0-------|


  Q=190
 4/4
  Gtrs I, II
  PM--|   PM  PM  PM    PM  PM  PM  PM------|   PM  PM  PM    PM  PM  PM  PM
  S S E E E E E E E   E E E E E E E E   S S E E E E E E E   E E E E E E E E
|-------------------|-----------------|-------------------|------------------|
|-------------------|-----------------|-------------------|------------------|
|-------------------|-----------------|-------------------|------------------|
|-------------------|-----------------|-------------------|------------------|
|-------9---9---9---|-9---9---9---9---|-------8---8---8---|-8---8---8---8----|
|-0-0-0---0---0---0-|---0---0---0---0-|-0-0-0---0---0---0-|---0---0---0---0--|


  Gtrs I, II
  PM--|    PM   PM   PM    PM  PM  PM  PM-
  S S E  E E  E E  E E   E E E E E E E E
|----------------------|-----------------|
|----------------------|-----------------|
|----------------------|-----------------|
|----------------------|-----------------|
|-------11---11---11---|-6---6---6---6---|
|-0-0-0----0----0----0-|---0---0---0---0-|


                      Gtr I
 -----|   PM  PM  PM
  S S E E E E E E E    E E E E E E  E E
|-------------------|-------------------|
|-------------------|-------------------|
|-------------------|--------7----------|
|-------------------|-10-8-7---8--------|
|-------5---5---5---|------------9-10-6-|
|-0-0-0---0---0---0-|-------------------|


    PM----------------------------------|
    E S S E S S E S S E S S   E S S E S S  S  S S  S  S S  E     4x
||--------------------------|------------------------------------||
||o-------------------------|-----------------------------------o||
||--------------------------|------------------------------------||
||--------------------------|------------------------------------||
||o-------------------------|-----------------------------------o||
||--0-0-0-0-0-0-0-0-0-0-0-0-|-0-0-0-0-0-0-19-15-0-18-15-0-15-----||


  Q=180
  PM--|   PM|   PM|    PM|     PM|    PM|   PM|
  S S E E S S E S S  E S S   E S S  E S S E S S Q
|--------------------------|-------------------------|
|--------------------------|-------------------------|
|--------------------------|-------------------------|
|--------------------------|-7-----------------------|
|-------7-----8-----10-----|-------10-----8-----7----|
|-8-8-8---8-8---8-8----8-8-|---8-8----8-8---8-8------|


  PM--|   PM|   PM|   PM|     PM|   PM|
  S S E E S S E S S E S S   E S S E S S S S E S S E

|-------------------------|----------------------------|
|-------------------------|----------------------------|
|-------------------------|----------------------------|
|-------------------5-----|-7-----5--------------------|
|-------7-----8-----------|-------------5h7p5-4h5p4----|
|-5-5-5---5-5---5-5---5-5-|---5-5---5-5----------------|


  Q=190
  PM----------------------------------|
  E S S E S S E S S E S S   E S S E S S  S  S S  S  S S  E
|-------------------------|-----------------------------------|
|-------------------------|-----------------------------------|
|-------------------------|-----------------------------------|
|-------------------------|-----------------------------------|
|-------------------------|-----------------------------------|
|-0-0-0-0-0-0-0-0-0-0-0-0-|-0-0-0-0-0-0-19-15-0-18-15-0-15----|


  PM----------------------------------|
  E S S E S S E S S E S S   E S S E S S  S  S S  S  S S  E
|-------------------------|-----------------------------------|
|-------------------------|-----------------------------------|
|-------------------------|-----------------------------------|
|-------------------------|-----------------------------------|
|-------------------------|-----------------------------------|
|-0-0-0-0-0-0-0-0-0-0-0-0-|-0-0-0-0-0-0-19-15-0-18-15-0-15----|


    Q=180
    PM--|   PM|   PM|    PM|     PM|    PM|   PM|
    S S E E S S E S S  E S S   E S S  E S S E S S Q
||---------------------------|-------------------------|
||o--------------------------|-------------------------|
||---------------------------|-------------------------|
||---------------------------|-7-----------------------|
||o-------7-----8-----10-----|-------10-----8-----7----|
||--8-8-8---8-8---8-8----8-8-|---8-8----8-8---8-8------|


                                    1.                  2.
                                                       3/4
  PM--|   PM|   PM|   PM|     PM|   PM|                 PM|   PM|    PM|
  S S E E S S E S S E S S   E S S E S S S S E S S E     S S E S S  E S S E
|-------------------------|--------------------------||---------------------|
|-------------------------|-------------------------o||---------------------|
|-------------------------|--------------------------||---------------------|
|-------------------5-----|-7-----5------------------||-----9-----10-----8--|
|-------7-----8-----------|-------------5h7p5-4h5p4-o||-----7------7-----7--|
|-5-5-5---5-5---5-5---5-5-|---5-5---5-5--------------||-7-7---7-7----7-7----|


  Q=200
 6/4                      4/4                5/4
  Gtr I
  PM----|    PM------|      PM----|   PM------------|  ~~    ~~~
  E E E E E  E E E E E Q    E E E E E E E E   E E E E  Q  E  Q.
|------------------------|------------------|--------------------|
|------------------------|------------------|--------------------|
|------------------------|------------------|--------------------|
|------------------------|------------------|--------------------|
|-0-0-0-0----0-0-0-0-0---|--0-0-0-0---0-0-0-|-0-0-0-0-/5--0-/7---|
|-0-0-0-0----0-0-0-0-0---|--0-0-0-0---0-0-0-|-0-0-0-0-/5--0-/7---|


  Q=200
 6/4                      4/4               5/4
  Gtr I
  PM----|    PM------|     PM----|   PM------------|  ~~    ~~~
  E E E E E  E E E E E Q   E E E E E E E E   E E E E  Q  E  Q.
|------------------------|-----------------|---------------------|
|------------------------|-----------------|---------------------|
|------------------------|-----------------|---------------------|
|------------------------|-----------------|---------------------|
|-0-0-0-0----0-0-0-0-0---|-0-0-0-0---0-0-0-|-0-0-0-0-/5--0-/7----|
|-0-0-0-0----0-0-0-0-0---|-0-0-0-0---0-0-0-|-0-0-0-0-/5--0-/7----|
|
| Gtr II
|                                                     ~~    ~~~
| W              H         W                 H        Q  E  Q.
|------------------------|-----------------|---------------------|
|------------------------|-----------------|---------------------|
|------------------------|-----------------|---------------------|
|------------------------|-----------------|---------------------|
|------------------------|-----------------|---------/5--0-/7----|
|------------------------|-----------------|---------/5--0-/7----|


    Q=200
   6/4
    Gtrs I, II
     PM--------|    PM---------|
     E     E E E E  E E   E  E E Q
||---------------------------------|
||o--------------------------------|
||---------------------------------|
||---------------------------------|
||o--0-----0-0-0----0-0---0--0-0---|
||---0-----0-0-0----0-0---0--0-0---|
|
|   Gtr III
|    Q       Q   Q  Q     Q    Q
||---------------------------------|
||o--------------------------------|
||---------------------------------|
||---7S======5------8S====7--------|
||o--------------------------------|
||---------------------------------|
|
|   Gtr IV
|    W                   +H
||---------------------------------|
||o--------------------------------|
||--18pb20r=============(18)-------|
||---------------------------------|
||o--------------------------------|
||---------------------------------|


 4/4                    5/4
       PM----|   PM---------------|  ~~~     ~~~
       E E E E E E E E     E  E E E  Q    E  Q.  3x
|----------------------|-------------------------||
|----------------------|------------------------o||
|----------------------|-------------------------||
|----------------------|-------------------------||
|------0-0-0-0---0-0-0-|---0--0-0-0-/5----0-/7--o||
|------0-0-0-0---0-0-0-|---0--0-0-0-/5----0-/7---||
|
|   Q    Q   Q   Q         Q  Q   Q     Q Q      3x
|----------------------|-------------------------||
|----------------------|------------------------o||
|----------------------|-------------------------||
|--10S===8-------8S====|===7------7S====4--------||
|----------------------|------------------------o||
|----------------------|-------------------------||
|
|  +W                     +H         H.          3x
|----------------------|-------------------------||
|----------------------|------------------------o||
|-(18)-----------------|-(18)--------------------||
|----------------------|-------------------------||
|----------------------|------------------------o||
|----------------------|-------------------------||


  Q=200
 6/4
  Gtrs I, II
   PM--------|    PM---------|
   E     E E E E  E E   E  E  E Q
|---------------------------------|
|---------------------------------|
|---------------------------------|
|---------------------------------|
|--0-----0-0-0----0-0---0--0--0---|
|--0-----0-0-0----0-0---0--0--0---|
|
| Gtr III
|  W                Q         Q
|---------------------------------|
|---------------------------------|
|---------------------------------|
|----------------------------13S==|
|---------------------------------|
|---------------------------------|
|
|  W                   +H
|---------------------------------|
|---------------------------------|
|-18pb20r=============(18)--------|
|---------------------------------|
|---------------------------------|
|---------------------------------|


 4/4                       5/4
       PM-----|     PM----------------|   ~~~      ~~~
       E  E E  E E  E E E     E   E E  E  Q     E  Q.
|-------------------------|----------------------------|
|-------------------------|----------------------------|
|-------------------------|----------------------------|
|-------------------------|----------------------------|
|------0--0-0--0----0-0-0-|---0---0-0--0-/5-----0-/7---|
|------0--0-0--0----0-0-0-|---0---0-0--0-/5-----0-/7---|
|
|   Q     Q    Q    Q         Q   Q    Q      Q    Q
|-------------------------|----------------------------|
|-------------------------|----------------------------|
|-------------------------|----------------------------|
|--12----12S==15---15S====|==16--16S==15-----15S==12---|
|-------------------------|----------------------------|
|-------------------------|----------------------------|
|
|  +W                        +H           H.
|-------------------------|----------------------------|
|-------------------------|----------------------------|
|-(18)--------------------|-(18)-----------------------|
|-------------------------|----------------------------|
|-------------------------|----------------------------|
|-------------------------|----------------------------|


    Q=200
   6/4
    Gtrs I, II
     PM--------|    PM---------|
     E     E E E E  E E   E  E E Q
||---------------------------------|
||o--------------------------------|
||---------------------------------|
||---------------------------------|
||o--0-----0-0-0----0-0---0--0-0---|
||---0-----0-0-0----0-0---0--0-0---|
|
|   Gtr III
|    Q       Q   Q  Q     Q    Q
||---------------------------------|
||o--------------------------------|
||---------------------------------|
||---7S======5------8S====7--------|
||o--------------------------------|
||---------------------------------|
|
|    W                   +H
||---------------------------------|
||o--------------------------------|
||--18pb20r=============(18)-------|
||---------------------------------|
||o--------------------------------|
||---------------------------------|


 4/4                    5/4
       PM----|   PM---------------|  ~~~     ~~~
       E E E E E E E E     E  E E E  Q    E  Q.  3x
|----------------------|-------------------------||
|----------------------|------------------------o||
|----------------------|-------------------------||
|----------------------|-------------------------||
|------0-0-0-0---0-0-0-|---0--0-0-0-/5----0-/7--o||
|------0-0-0-0---0-0-0-|---0--0-0-0-/5----0-/7---||
|
|   Q    Q   Q   Q         Q  Q   Q     Q    Q   3x
|----------------------|-------------------------||
|----------------------|------------------------o||
|----------------------|-------------------------||
|--10S===8-------8S====|===7------7S====4--------||
|----------------------|------------------------o||
|----------------------|-------------------------||
|
|  +W                     +H         H.          3x
|----------------------|-------------------------||
|----------------------|------------------------o||
|-(18)-----------------|-(18)--------------------||
|----------------------|-------------------------||
|----------------------|------------------------o||
|----------------------|-------------------------||


  Q=200
 6/4
  Gtrs I, II
   PM--------|   PM---------|
   E     E E E E E E E   E  E  Q
|---------------------------------|
|---------------------------------|
|---------------------------------|
|---------------------------------|
|--0-----0-0-0---0-0-0---0--0-----|
|--0-----0-0-0---0-0-0---0--0-----|
|
| Gtr III
|  W                     Q     Q
|---------------------------------|
|---------------------------------|
|---------------------------------|
|-----------------------------13S=|
|---------------------------------|
|---------------------------------|
|
|  W                    +H
|---------------------------------|
|---------------------------------|
|-18pb20r==============(18)-------|
|---------------------------------|
|---------------------------------|
|---------------------------------|


 4/4                     5/4
    PM------|    PM-----------------|  ~~~     ~~~
    E  E  E E  E E  E E     E  E  E E  Q    E  Q.
|-----------------------|-----------------------------|
|-----------------------|-----------------------------|
|-----------------------|-----------------------------|
|-----------------------|-----------------------------|
|---0--0--0-0----0--0-0-|---0--0--0-0-/5----0-/7------|
|---0--0--0-0----0--0-0-|---0--0--0-0-/5----0-/7------|
|
|   Q     Q    Q    Q       Q     Q    Q    Q      Q
|-----------------------|-----------------------------|
|-----------------------|-----------------------------|
|-----------------------|-----------------------------|
|--12----12S==15---15S==|==16----16S==15---15S====12--|
|-----------------------|-----------------------------|
|-----------------------|-----------------------------|
|
|  +W                      +H          H.
|-----------------------|-----------------------------|
|-----------------------|-----------------------------|
|-(18)------------------|-(18)------------------------|
|-----------------------|-----------------------------|
|-----------------------|-----------------------------|
|-----------------------|-----------------------------|


    Q=200
   6/4
    Gtrs I, II
     PM--------|   PM------------|
     E     E E E E E E E   E     E Q
||------------------------------------|
||o-----------------------------------|
||------------------------------------|
||------------------------------------|
||o--0-----0-0-0---0-0-0---0-----0----|
||---0-----0-0-0---0-0-0---0-----0----|
|
|   Gtr III
|    W                    +H
||------------------------------------|
||o-----------------------------------|
||--18pb20r==============(18)---------|
||------------------------------------|
||o-----------------------------------|
||------------------------------------|
|
|    W                     H
||------------------------------------|
||o-----------------------------------|
||------------------------18pb20r=====|
||------------------------------------|
||o-----------------------------------|
||------------------------------------|


 4/4                  5/4
    PM-----|   PM------------|  ~~    ~~~
    E  E E E E E E E   E E E E  Q  E  Q.      4x
|--------------------|------------------------||
|--------------------|-----------------------o||
|--------------------|------------------------||
|--------------------|------------------------||
|---0--0-0-0---0-0-0-|-0-0-0-0-/5--0-/7------o||
|---0--0-0-0---0-0-0-|-0-0-0-0-/5--0-/7-------||
|
|   W                  W                 Q    4x
|--------------------|------------------------||
|--------------------|-----------------------o||
|--------------------|------------------------||
|--------------------|------------------------||
|--------------------|-----------------------o||
|--------------------|------------------------||
|
| Gtr IV
|  +W                  W                 Q    4x
|--------------------|------------------------||
|--------------------|-----------------------o||
|-(18)---------------|------------------------||
|--------------------|------------------------||
|--------------------|-----------------------o||
|--------------------|------------------------||


------
Omerta
------
Main Riff
e----------------------------------------------------------------------|
B----------------------------------------------------------------------|
G----------------------------------------------------------------------|
D----------------------------------------------------------------------|
A----------5-----------------4-----------------7----------------5------|
D--0-0-000---0-0-0---0-0-000---0-0-0---0-0-000---0-0-0--0-8-0-87-7-----|
  PM * ***   * * *   * * ***   * * *   * * ***   * * *  *   *

e----------------------------------------------------------------------|
B----------------------------------------------------------------------|
G----------------------------------------------------------------------|
D---------------------------------------------------------6---6/10h12--|
A----------5-----------------4-----------------7-----------------------|
D--0-0-000---0-0-0---0-0-000---0-0-0---0-0-000---0-0-0--0---0----------|
  PM * ***   * * *   * * ***   * * *   * * ***   * * *  *   *
or:
e----------------------------------------------------------------------|
B----------------------------------------------------------------------|
G----------------------------------------------------------------------|
D---------------------------------------------------------6---6/10(10)-|
A----------5-----------------4-----------------7-----------------------|
D--0-0-000---0-0-0---0-0-000---0-0-0---0-0-000---0-0-0--0---0----------|
  PM * ***   * * *   * * ***   * * *   * * ***   * * *  *   *

Chorus 1
e----------------------------------------------------------------------|
B----------------------------------------------------------------------|
G----------------------------------------------------------------------|
D-3-6----3-6----3-6----3-6-3-6--6-0----6-0----6-0----6-0-6-0-----------|
A-3-6----3-6----3-6----3-6-3-6--6-0----6-0----6-0----6-0-6-0-----------|
D-3-6----3-6----3-6----3-6-3-6--6-0----6-0----6-0----6-0-6-0-----------|

e-------------------------------|
B-------------------------------|
G-------------------------------|
D-3-6----3-6----3-6----3-6-3-6--|
A-3-6----3-6----3-6----3-6-3-6--|
D-3-6----3-6----3-6----3-6-3-6--|

Chorus 2
e----------------------------------------------------------------------|
B----------------------------------------------------------------------|
G----------------------------------------------------------------------|
D-3-6----3-6----3-6----3-6-3-6--6-0----6-0----6-0----6-0-6-0-----------|x2
A-3-6----3-6----3-6----3-6-3-6--6-0----6-0----6-0----6-0-6-0-----------|
D-3-6----3-6----3-6----3-6-3-6--6-0----6-0----6-0----6-0-6-0-----------|

Bridge 1
e----------------------------|
B----------------------------|
G----------------------------|
D--------6------0-1----3-4---|
A--------6------0-1----3-4---|
D-0-0000-6--000-0-1-00-3-4---|
 PM ****    ***     **

Bridge 2
e--------------------------------------------|
B--------------------------------------------|
G--------------------------------------------|
D--------------------------------------------|
A--------------------------------------------|
D-00-6-8-00-3-5-00-5-0-00-0000---------------|
 PM*     **     **     ** ****

Bridge 3
e--------------------------------------------|
B--------------------------------------------|
G--------------------------------------------|
D----6-8----3-5----5-0-----------------------|
A----6-8----3-5----5-0-----------------------|
D-00-6-8-00-3-5-00-5-0-00-0000---------------|
 PM*     **     **     ** ****

Outro
e--------------------------------------------------|
B--------------------------------------------------|
G--------------------------------------------------|
D--------------------------------------------------|
A-0-00-5-0-0--0-00-4-0-0--0-00-7-0-0----------5----|
D-0-00---0-0--0-00---0-0--0-00---0-0--0-8-0-87-7---|

e-------------------------------------------------------|
B-------------------------------------------------------|
G-------------------------------------------------------|
D---------------------------------------6---6/10/12--00-|
A-0-00-5-0-0--0-00-4-0-0--0-00-7-0-0-----------------00-|
D-0-00---0-0--0-00---0-0--0-00---0-0--0---0----------00-|
 PM **   * *  * **   * *  * **   * *  *   *

or:

e-------------------------------------------------------|
B-------------------------------------------------------|
G-------------------------------------------------------|
D---------------------------------------6---6/10(10)-00-|
A-0-00-5-0-0--0-00-4-0-0--0-00-7-0-0-----------------00-|
D-0-00---0-0--0-00---0-0--0-00---0-0--0---0----------00-|
 PM **   * *  * **   * *  * **   * *  *   *      

-------------------
Blood Of The Scribe
-------------------
	Guitar 1 & 2 (0:00-0:26)
e|----------------------------------------------------------|
B|----------------------------------------------------------|
G|----------------------------------------------------------|
D|-------------7-----5-----------6--------------------------|
A|-------5-----------------7-----------8--------------------|
D|-0-000---0-0---0-0---0-0---0-0---0-0---0-0-3-5-7----------|
   . ...   . .   . .   . .   . .   . .   . .

e|----------------------------------------------------------|
B|----------------------------------------------------------|
G|----------------------------------------------------------|
D|-------------7-----5-----------6-----------3---1----------|
A|-------5-----------------7--------------------------------|
D|-0-000---0-0---0-0---0-0---0-0---0-0-1-111---1------------|
   . ...   . .   . .   . .   . .   . . . ...   .

e|----------------------------------------------------------|
B|----------------------------------------------------------|
G|----------------------------------------------------------|
D|-------------7-----5-----------6--------------------------|
A|-------5-----------------7-----------8--------------------|
D|-0-000---0-0---0-0---0-0---0-0---0-0---0-0-3-5-7----------|
   . ...   . .   . .   . .   . .   . .   . .

e|----------------------------------------------------------|
B|----------------------------------------------------------|
G|----------------------------------------------------------|
D|-------------7-----5--------------------------------------|
A|-------5-------------------8-8-------7-7-10---------------|
D|-0-000---0-0---0-0---0-0-0-8-8---0-0-7-7-10---------------|
   . ...   . .   . .   . . .        . .

e|----------------------------------------------------------|
B|----------------------------------------------------------|
G|----------------------------------------------------------|
D|-------------7-----5-----------6--------------------------|
A|-------5-----------------7-----------8--------------------|
D|-0-000---0-0---0-0---0-0---0-0---0-0---0-0-3-5-7----------|
   . ...   . .   . .   . .   . .   . .   . .

e|----------------------------------------------------------|
B|----------------------------------------------------------|
G|----------------------------------------------------------|
D|-------------7-----5-----------6-----------3---1----------|
A|-------5-----------------7--------------------------------|
D|-0-000---0-0---0-0---0-0---0-0---0-0-1-111---1------------|
   . ...   . .   . .   . .   . .   . . . ...   .

e|----------------------------------------------------------|
B|----------------------------------------------------------|
G|----------------------------------------------------------|
D|-------------7-----5-----------6--------------------------|
A|-------5-----------------7-----------8--------------------|
D|-0-000---0-0---0-0---0-0---0-0---0-0---0-0-3-5-7----------|
   . ...   . .   . .   . .   . .   . .   . .

e|----------------------------------------------------------|
B|----------------------------------------------------------|
G|----------------------------------------------------------|
D|-------------7-----5--------------------------------------|
A|-------5---------------------5~----8~---------------------|
D|-0-000---0-0---0-0---0-0--8-----7-------------------------|
   . ...   . .   . .   . .


	Guitar 1 & 2 (0:26-0:38)
e|----------------------------------------------------------|
B|----------------------------------------------------------|
G|----------------------------------------------------------|
D|----------------------------------------------------------|
A|-5-555-8-5-5-8-5-5-8h9p8p6-0-8-8--0-0-7-7-----------------|
D|---------------------------0-8-8--0-0-7-7-----------------|
   . ...   . .   . .         .      . .

e|----------------------------------------------------------|
B|----------------------------------------------------------|
G|----------------------------------------------------------|
D|----------------------------------------------------------|
A|-5-555-8-5-5-8-5-5-8h9p8p6-0-2-2--0-0-3-3-----------------|
D|---------------------------0-2-2--0-0-3-3-----------------|
   . ...   . .   . .         .      . .

e|----------------------------------------------------------|
B|----------------------------------------------------------|
G|----------------------------------------------------------|
D|---------------------------------------------------/5-4---|
A|-5-555-8-5-5-8-5-5-8h9p8p6-0-8-8--0-0-7-7------3-3------6-|
D|---------------------------0-8-8--0-0-7-7--0-0-3-3--------|
   . ...   . .   . .         .      . .      . .


	Guitar 1 & 2 (0:38-1:07)
e|----------------------------------------------------------|
B|----------------------------------------------------------|
G|----------------------------------------------------------|
D|----------------------------------------------------------|
A|----------------------------------------------------------|
D|-0-0-0-1p0-0-1p0-0-1p0-0-4p0-0-4p0-0-4p0-0-4p0-0-3p0-0----|

e|----------------------------------------------------------|
B|----------------------------------------------------------|
G|----------------------------------------------------------|
D|----------------------------------------------------------|
A|----------------------------------------------------------|
D|-3p0-0-3p0-0-3p0-0-3p0-0-3p0-0-3p0-4h6~-------------------|

e|----------------------------------------------------------|
B|----------------------------------------------------------|
G|----------------------------------------------------------|
D|----------------------------------------------------------|
A|----------------------------------------------------------|
D|-0-0-0-1p0-0-1p0-0-1p0-0-4p0-0-4p0-0-4p0-0-4p0-0-3p0-0----|

e|----------------------------------------------------------|
B|----------------------------------------------------------|
G|----------------------------------------------------------|
D|----------------------------------------------------------|
A|----------------------------------------------------------|
D|-3p0-0-3p0-0-3p0-0-3p0-0-3p0-0-3p0-4h6~-------------------|

e|----------------------------------------------------------|
B|----------------------------------------------------------|
G|----------------------------------------------------------|
D|----------------------------------------------------------|
A|----------------------------------------------------------|
D|-0-0-0-1p0-0-1p0-0-1p0-0-4p0-0-4p0-0-4p0-0-4p0-0-3p0-0----|

e|----------------------------------------------------------|
B|----------------------------------------------------------|
G|----------------------------------------------------------|
D|----------------------------------------------------------|
A|----------------------------------------------------------|
D|-3p0-0-3p0-0-3p0-0-3p0-0-3p0-0-3p0-4h6~-------------------|

e|----------------------------------------------------------|
B|----------------------------------------------------------|
G|----------------------------------------------------------|
D|----------------------------------------------------------|
A|----------------------------------------------------------|
D|-0-0-0-1p0-0-1p0-0-1p0-0-4p0-0-4p0-0-4p0-0-4p0-0-3p0-0----|

e|----------------------------------------------------------|
B|----------------------------------------------------------|
G|----------------------------------------------------------|
D|-------------------------------/5-4-----------------------|
A|------------------------------------6---------------------|
D|-3p0-0-3p0-0-3p0-0-0-0-0-0-0-0----------------------------|
                     . . . . . .


	Guitar 1 & 2 (1:07-1:35)
e|----------------------------------------------------------|
B|----------------------------------------------------------|
G|----------------------------------------------------------|
D|----------------------------------------------------------|
A|-0-0-0-1p0-0-0-0-0-0-1-0-5-0-4-0-0-0-0-0-0-0-1-0-5-0-4----|
D|-0-0-0-1p0-0-0-0-0-0-1-0-5-0-4-0-0-0-0-0-0-0-1-0-5-0-4----|
   . . .     . . . . .   .   .   . . . . . . .   .   .

e|----------------------------------------------------------|
B|----------------------------------------------------------|
G|----------------------------------------------------------|
D|----------------------------------------------------------|
A|-0-0-0-0-0-0-0-1-0-5-0-4-0-0-0-------1~-------------------|
D|-0-0-0-0-0-0-0-1-0-5-0-4-0-0-0-0-2-3----------------------|
   . . . . . . .   .   .   . . . . . .

e|----------------------------------------------------------|
B|----------------------------------------------------------|
G|----------------------------------------------------------|
D|----------------------------------------------------------|
A|-0-0-0-1p0-0-0-0-0-0-1-0-5-0-4-0-0-0-0-0-0-0-1-0-5-0-4----|
D|-0-0-0-1p0-0-0-0-0-0-1-0-5-0-4-0-0-0-0-0-0-0-1-0-5-0-4----|
   . . .     . . . . .   .   .   . . . . . . .   .   .

e|----------------------------------------------------------|
B|----------------------------------------------------------|
G|----------------------------------------------------------|
D|----------------------------------------------------------|
A|-0-0-0-0-0-0-0-1-0-5-0-4-0-0-0-------1~-------------------|
D|-0-0-0-0-0-0-0-1-0-5-0-4-0-0-0-0-2-3----------------------|
   . . . . . . .   .   .   . . . . . .

e|----------------------------------------------------------|
B|----------------------------------------------------------|
G|----------------------------------------------------------|
D|----------------------------------------------------------|
A|-2-2-2-3p2-2-2-2-2-2-----------2-2-2-2-2-2-2--------------|
D|-2-2-2-3p2-2-2-2-2-2-3p2-7p2-6-2-2-2-2-2-2-2-3p2-7p2-6----|
   . . .     . . . . .           . . . . . . .

e|----------------------------------------------------------|
B|----------------------------------------------------------|
G|----------------------------------------------------------|
D|----------------------------------------------------------|
A|-2-2-2-2-2-2-2-----------2-2-2----------------------------|
D|-2-2-2-2-2-2-2-3p2-7p2-6-2-2-2-2h3p2-1~-------------------|
   . . . . . . .           . . .

e|----------------------------------------------------------|
B|----------------------------------------------------------|
G|----------------------------------------------------------|
D|----------------------------------------------------------|
A|-0-0-0-1p0-0-0-0-0-0-1-0-5-0-4-0-0-0-0-0-0-0-1-0-5-0-4----|
D|-0-0-0-1p0-0-0-0-0-0-1-0-5-0-4-0-0-0-0-0-0-0-1-0-5-0-4----|
   . . .     . . . . .   .   .   . . . . . . .   .   .

e|----------------------------------------------------------|
B|----------------------------------------------------------|
G|----------------------------------------------------------|
D|----------------------------------------------------------|
A|-0-0-0-0-0-0-0-1-0-5-0-4-0-0-0-------1*~------------------|
D|-0-0-0-0-0-0-0-1-0-5-0-4-0-0-0-0-2-3----------------------|
   . . . . . . .   .   .   . . . . . .


	Guitar 1 & 2 (1:35-2:04)
e|----------------------------------------------------------|
B|---------------------------------------------5h6p5--------|
G|-------9h10---7h9---------10p9---9p7-----6-7-------7------|
D|----------------------------------------------------------|
A|-0--------------------------------------------------------|
D|-0----------0-----0-0-000------0-----0-0------------------|
              .     . . ...      .     . . . .

e|----------------------------------------------------------|
B|----------------------------------------------------------|
G|-------9h10---7h9-----------------------------------------|
D|--------------------------8p7---7\5--------6h7p6----------|
A|---------------------------------------7-8-------7--------|
D|-8-888------8-----8-8-888-----8------8--------------------|
   . ...      .     . . ...     .      . . .

e|----------------------------------------------------------|
B|---------------------------------------------5h6p5--------|
G|-------9h10---7h9---------10p9---9p7-----6-7-------7------|
D|----------------------------------------------------------|
A|----------------------------------------------------------|
D|-0-000------0-----0-0-000------0-----0-0------------------|
   . ...      .     . . ...      .     . . . .

e|----------------------------------------------------------|
B|----------------------------------------------------------|
G|-------9h10---7h9-----------------------------------------|
D|--------------------------8p7---7\5---3-------------------|
A|--------------------------------------1-3-1---------------|
D|-8-888------8-----8-8-888-----8---------3-1---------------|
   . ...      .     . . ...     .         . .

e|----------------------------------------------------------|
B|---------------------------------------------5h6p5--------|
G|-------9h10---7h9---------10p9---9p7-----6-7-------7------|
D|----------------------------------------------------------|
A|-0--------------------------------------------------------|
D|-0----------0-----0-0-000------0-----0-0------------------|
              .     . . ...      .     . . . .

e|----------------------------------------------------------|
B|----------------------------------------------------------|
G|-------9h10---7h9-----------------------------------------|
D|--------------------------8p7---7\5--------6h7p6----------|
A|---------------------------------------7-8-------7--------|
D|-8-888------8-----8-8-888-----8------8--------------------|
   . ...      .     . . ...     .      . . .

e|----------------------------------------------------------|
B|---------------------------------------------5h6p5--------|
G|-------9h10---7h9---------10p9---9p7-----6-7-------7------|
D|----------------------------------------------------------|
A|----------------------------------------------------------|
D|-0-000------0-----0-0-000------0-----0-0------------------|
   . ...      .     . . ...      .     . . . .

e|----------------------------------------------------------|
B|----------------------------------------------------------|
G|-------9h10---7h9-----------------------------------------|
D|--------------------------8p7---7\5---3-------------------|
A|--------------------------------------1-3-1---------------|
D|-8-888------8-----8-8-888-----8---------3-1---------------|
   . ...      .     . . ...     .         . .


	Guitar 1 & 2 (2:04-2:33)
e|----------------------------------------------------------|
B|----------------------------------------------------------|
G|----------------------------------------------------------|
D|-------------7-----5-----------6--------------------------|
A|-------5-----------------7-----------8--------------------|
D|-0-000---0-0---0-0---0-0---0-0---0-0---0-0-3-5-7----------|
   . ...   . .   . .   . .   . .   . .   . .

e|----------------------------------------------------------|
B|----------------------------------------------------------|
G|----------------------------------------------------------|
D|-----------7--8-------------------------------------------|
A|--------7---------------5---------------------------------|
D|-5-555-----------3-333------2-3-2-5b*-3-------------------|
   . ...           . ...      . . .

e|----------------------------------------------------------|
B|----------------------------------------------------------|
G|----------------------------------------------------------|
D|-------------7-----5-----------6--------------------------|
A|-------5-----------------7-----------8--------------------|
D|-0-000---0-0---0-0---0-0---0-0---0-0---0-0-3-5-7----------|
   . ...   . .   . .   . .   . .   . .   . .

e|----------------------------------------------------------|
B|----------------------------------------------------------|
G|----------------------------------------------------------|
D|-----------7--8-------------------------------------------|
A|--------7---------------5---------------------------------|
D|-5-555-----------3-333------2-3-2-5b*-3-------------------|
   . ...           . ...      . . .

e|----------------------------------------------------------|
B|----------------------------------------------------------|
G|----------------------------------------------------------|
D|-------------7-----5-----------6--------------------------|
A|-------5-----------------7-----------8--------------------|
D|-0-000---0-0---0-0---0-0---0-0---0-0---0-0-3-5-7----------|
   . ...   . .   . .   . .   . .   . .   . .

e|----------------------------------------------------------|
B|----------------------------------------------------------|
G|----------------------------------------------------------|
D|-----------7--8-------------------------------------------|
A|--------7---------------5---------------------------------|
D|-5-555-----------3-333------2-3-2-5b*-3-------------------|
   . ...           . ...      . . .

e|----------------------------------------------------------|
B|----------------------------------------------------------|
G|----------------------------------------------------------|
D|-------------7-----5-----------6--------------------------|
A|-------5-----------------7-----------8--------------------|
D|-0-000---0-0---0-0---0-0---0-0---0-0---0-0-3-5-7----------|
   . ...   . .   . .   . .   . .   . .   . .

e|----------------------------------------------------------|
B|----------------------------------------------------------|
G|----------------------------------------------------------|
D|-----------7--8-------------------------------------------|
A|--------7---------------5---------3*~---------------------|
D|-5-555-----------3-333------2-3-2-------------------------|
   . ...           . ...      . . .


	Guitar 1 & 2 (2:33-3:01)
e|----------------------------------------------------------|
B|---------------------------------------------5h6p5--------|
G|-------9h10---7h9---------10p9---9p7-----6-7-------7------|
D|----------------------------------------------------------|
A|-0--------------------------------------------------------|
D|-0----------0-----0-0-000------0-----0-0------------------|
              .     . . ...      .     . . . .

e|----------------------------------------------------------|
B|----------------------------------------------------------|
G|-------9h10---7h9-----------------------------------------|
D|--------------------------8p7---7\5--------6h7p6----------|
A|---------------------------------------7-8-------7--------|
D|-8-888------8-----8-8-888-----8------8--------------------|
   . ...      .     . . ...     .      . . .

e|----------------------------------------------------------|
B|---------------------------------------------5h6p5--------|
G|-------9h10---7h9---------10p9---9p7-----6-7-------7------|
D|----------------------------------------------------------|
A|----------------------------------------------------------|
D|-0-000------0-----0-0-000------0-----0-0------------------|
   . ...      .     . . ...      .     . . . .

e|----------------------------------------------------------|
B|----------------------------------------------------------|
G|-------9h10---7h9-----------------------------------------|
D|--------------------------8p7---7\5---3-------------------|
A|--------------------------------------1-3-1---------------|
D|-8-888------8-----8-8-888-----8---------3-1---------------|
   . ...      .     . . ...     .         . .

e|----------------------------------------------------------|
B|---------------------------------------------5h6p5--------|
G|-------9h10---7h9---------10p9---9p7-----6-7-------7------|
D|----------------------------------------------------------|
A|-0--------------------------------------------------------|
D|-0----------0-----0-0-000------0-----0-0------------------|
              .     . . ...      .     . . . .

e|----------------------------------------------------------|
B|----------------------------------------------------------|
G|-------9h10---7h9-----------------------------------------|
D|--------------------------8p7---7\5--------6h7p6----------|
A|---------------------------------------7-8-------7--------|
D|-8-888------8-----8-8-888-----8------8--------------------|
   . ...      .     . . ...     .      . . .

e|----------------------------------------------------------|
B|---------------------------------------------5h6p5--------|
G|-------9h10---7h9---------10p9---9p7-----6-7-------7------|
D|----------------------------------------------------------|
A|----------------------------------------------------------|
D|-0-000------0-----0-0-000------0-----0-0------------------|
   . ...      .     . . ...      .     . . . .

e|----------------------------------------------------------|
B|----------------------------------------------------------|
G|-------9h10---7h9-----------------------------------------|
D|--------------------------8p7---7\5---3-------------------|
A|--------------------------------------1-3-1---------------|
D|-8-888------8-----8-8-888-----8---------3-1---------------|
   . ...      .     . . ...     .         . .


	Guitar 1 & 2 (3:01-3:31)
e|----------------------------------------------------------|
B|----------------------------------------------------------|
G|----------------------------------------------------------|
D|----------------------------------------------------------|
A|----------------------------------------------------------|
D|-0-0-0-1p0-0-1p0-0-1p0-0-4p0-0-4p0-0-4p0-0-4p0-0-3p0-0----|

e|----------------------------------------------------------|
B|----------------------------------------------------------|
G|----------------------------------------------------------|
D|----------------------------------------------------------|
A|----------------------------------------------------------|
D|-3p0-0-3p0-0-3p0-0-3p0-0-3p0-0-3p0-4h6~-------------------|

e|----------------------------------------------------------|
B|----------------------------------------------------------|
G|----------------------------------------------------------|
D|----------------------------------------------------------|
A|----------------------------------------------------------|
D|-0-0-0-1p0-0-1p0-0-1p0-0-4p0-0-4p0-0-4p0-0-4p0-0-3p0-0----|

e|----------------------------------------------------------|
B|----------------------------------------------------------|
G|----------------------------------------------------------|
D|----------------------------------------------------------|
A|----------------------------------------------------------|
D|-3p0-0-3p0-0-3p0-0-3p0-0-3p0-0-3p0-4h6~-------------------|

e|----------------------------------------------------------|
B|----------------------------------------------------------|
G|----------------------------------------------------------|
D|----------------------------------------------------------|
A|----------------------------------------------------------|
D|-0-0-0-1-0-0-1-0-0-1-0-0-4-0-0-4-0-0-4-0-0-4-0-0-3-0-0----|
   . . . . . . . . . . . . . . . . . . . . . . . . . . .

e|----------------------------------------------------------|
B|----------------------------------------------------------|
G|----------------------------------------------------------|
D|----------------------------------------------------------|
A|----------------------------------------------------------|
D|-3-0-0-3-0-0-3-0-0-3-0-0-3-0-0-3-0-4-6*~------------------|
   . . . . . . . . . . . . . . . . . .

e|----------------------------------------------------------|
B|----------------------------------------------------------|
G|----------------------------------------------------------|
D|----------------------------------------------------------|
A|----------------------------------------------------------|
D|-0-0-0-1-0-0-1-0-0-1-0-0-4-0-0-4-0-0-4-0-0-4-0-0-3-0-0----|
   . . . . . . . . . . . . . . . . . . . . . . . . . . .

e|----------------------------------------------------------|
B|----------------------------------------------------------|
G|-------------------------7--------------------------------|
D|-------------------0---7---8-7----------------------------|
A|---------------------8-------------1----------------------|
D|-3-0-0-3-0-0-3-0-0--------------00---3~-------------------|
   . . . . . . . . .   . .        ..


	Guitar 1 & 2 (3:31-3:56)
e|----------------------------------------------------------|
B|------------11-------------------------10-----------------|
G|----------------------------------------------------------|
D|----------------------------------------------------------|
A|-0-0-0------------------0-0-0-0-0-------------------------|
D|-0-0-0----0-------------0-0-0-0-0----0--------------------|
   . .      .             . . . .      .

e|----------------------------------------------------------|
B|----------------------------------------------------------|
G|----------------------------------------------------------|
D|----------------------------------------------------------|
A|-0-1-0-1-0-1-0-1-0-1-0-1-0-1-0-1-0-1-0-4------------------|
D|-0-1-0-1-0-1-0-1-0-1-0-1-0-1-0-1-0-1-0-4------------------|
   . . . . . . . . . . . . . . . . . . .

e|----------------------------------------------------------|
B|------------11-------------------------10-----------------|
G|----------------------------------------------------------|
D|----------------------------------------------------------|
A|-0-0-0------------------0-0-0-0-0-------------------------|
D|-0-0-0----0-------------0-0-0-0-0----0--------------------|
   . .      .             . . . .      .

e|----------------------------------------------------------|
B|----------------------------------------------------------|
G|----------------------------------------------------------|
D|---------------------------------------8-5----------------|
A|-0-1-0-1-0-1-0-1-0-1-0-1-0-1-0-1-0-1-0-6-3----------------|
D|-0-1-0-1-0-1-0-1-0-1-0-1-0-1-0-1-0-1-0--------------------|
   . . . . . . . . . . . . . . . . . . .

e|----------------------------------------------------------|
B|------------11-------------------------10-----------------|
G|----------------------------------------------------------|
D|----------------------------------------------------------|
A|-0-0-0------------------0-0-0-0-0-------------------------|
D|-0-0-0----0-------------0-0-0-0-0----0--------------------|
   . .      .             . . . .      .

e|----------------------------------------------------------|
B|----------------------------------------------------------|
G|----------------------------------------------------------|
D|----------------------------------------------------------|
A|-0-1-0-1-0-1-0-1-0-1-0-1-0-1-0-1-0-1-0-4------------------|
D|-0-1-0-1-0-1-0-1-0-1-0-1-0-1-0-1-0-1-0-4------------------|
   . . . . . . . . . . . . . . . . . . .

e|----------------------------------------------------------|
B|------------11-------------------------10-----------------|
G|----------------------------------------------------------|
D|----------------------------------------------------------|
A|-0-0-0------------------0-0-0-0-0-------------------------|
D|-0-0-0----0-------------0-0-0-0-0----0--------------------|
   . .      .             . . . .      .

e|----------------------------------------------------------|
B|----------------------------------------------------------|
G|----------------------------------------------------------|
D|---------------------------------------8-5----------------|
A|-0-1-0-1-0-1-0-1-0-1-0-1-0-1-0-1-0-1-0-6-3----------------|
D|-0-1-0-1-0-1-0-1-0-1-0-1-0-1-0-1-0-1-0--------------------|
   . . . . . . . . . . . . . . . . . . .


	Guitar 1 & 2 (3:56-4:23) END
e|----------------------------------------------------------|
B|----------------------------------------------------------|
G|----------------------------------------------------------|
D|----------------------------------------------------------|
A|----------------------------------------------------------|
D|-0-1-0-1-0-1-0-1-0-1-0-1-0-1-0-1-0-1-0-4------------------|

e|----------------------------------------------------------|
B|----------------------------------------------------------|
G|----------------------------------------------------------|
D|---------------------------------------8-5----------------|
A|---------------------------------------6-3----------------|
D|-0-1-0-1-0-1-0-1-0-1-0-1-0-1-0-1-0-1-0--------------------|

e|----------------------------------------------------------|
B|----------------------------------------------------------|
G|----------------------------------------------------------|
D|----------------------------------------------------------|
A|----------------------------------------------------------|
D|-0-1-0-1-0-1-0-1-0-1-0-1-0-1-0-1-0-1-0-4------------------|

e|----------------------------------------------------------|
B|----------------------------------------------------------|
G|----------------------------------------------------------|
D|---------------------------------------8-5----------------|
A|---------------------------------------6-3----------------|
D|-0-1-0-1-0-1-0-1-0-1-0-1-0-1-0-1-0-1-0--------------------|

e|----------------------------------------------------------|
B|----------------------------------------------------------|
G|----------------------------------------------------------|
D|----------------------------------------------------------|
A|-0-1-0-1-0-1-0-1-0-1-0-1-0-1-0-1-0-1-0-4------------------|
D|-0-1-0-1-0-1-0-1-0-1-0-1-0-1-0-1-0-1-0-4------------------|
   . . . . . . . . . . . . . . . . . . .

e|----------------------------------------------------------|
B|----------------------------------------------------------|
G|----------------------------------------------------------|
D|---------------------------------------8-5----------------|
A|-0-1-0-1-0-1-0-1-0-1-0-1-0-1-0-1-0-1-0-6-3----------------|
D|-0-1-0-1-0-1-0-1-0-1-0-1-0-1-0-1-0-1-0--------------------|
   . . . . . . . . . . . . . . . . . . .

e|----------------------------------------------------------|
B|----------------------------------------------------------|
G|----------------------------------------------------------|
D|----------------------------------------------------------|
A|-0-1-0-1-0-1-0-1-0-1-0-1-0-1-0-1-0-1-0-4------------------|
D|-0-1-0-1-0-1-0-1-0-1-0-1-0-1-0-1-0-1-0-4------------------|
   . . . . . . . . . . . . . . . . . . .

e|----------------------------------------------------------|
B|----------------------------------------------------------|
G|----------------------------------------------------------|
D|---------------------------------------8-5----------------|
A|-0-1-0-1-0-1-0-1-0-1-0-1-0-1-0-1-0-1-0-6-3----------------|
D|-0-1-0-1-0-1-0-1-0-1-0-1-0-1-0-1-0-1-0--------------------|
   . . . . . . . . . . . . . . . . . . .

-------
One Gun
-------
 Guitar 2 (0:00-0:29)
|-------------------------------|--------------------------------|
|-------------------------------|--------------------------------|
|-------------------------------|--------------------------------|
|-------------------------------|--------------------------------|
|-----5-----6-----5-----6-----5-|--------------------------------|
|-0-3---0-3---0-3---0-3---0-3---|-0-3-5-0-5-6-5--3br-1-0-1-4-1-0-|
  * *   * *   * *   * *   * *     * * * * * * *  \   * * * * * * 

|-------------------------------|---------------------------------|
|-------------------------------|---------------------------------|
|-------------------------------|---------------------------------|
|-------------------------------|---------------------------------|x3
|-----5-----6-----5-----6-----5-|---5-----------------------6-6-6-|
|-0-3---0-3---0-3---0-3---0-3---|-3---6-3-5-1-0-1/3h4p3-1p0-6-6-6-|
  * *   * *   * *   * *   * *     *   * * * * * * 

The last time you repeat the Intro, just Ring out A|-6-| once, instead of
                                                  D|-6-| strumming it 3
                                                             times.
 (0:29-0;48)
|------------------------------------|---------------------------------|
|------------------------------------|---------------------------------|
|------------------------------------|---------------------------------|
|---------------------------------x3-|---------------------------------|
|------------------------------------|-------------------------------6-|
|-0-0-0-0-0-0-0-0-0-0-3-0-1-4-1-0----|-3-3-3-3-3-3-2-2-2-2-2h3p2-1p0-6-|
  * * * * * * * * * *                  * * * * * * * * * *       

|------------------------------------|---------------------------------|
|------------------------------------|---------------------------------|
|------------------------------------|---------------------------------|
|---------------------------------x3-|---------------------------------|
|------------------------------------|-------------------------------6-|
|-0-0-0-0-0-0-0-0-0-0-3-0-1-4-1-0----|-3-3-3-3-3-3-2-2-2-2-2h3p2-1p0-6-|
  * * * * * * * * * *                  * * * * * * * * * * 
 
 (0:49-1:08)
|---------------------------------|----------------------------------|
|---------------------------------|----------------------------------|
|---------------------------------|----------------------------------|
|---------------------------------|----------------------------------|  
|-----------------------------3h6-|-------1--------------------------|
|-0-3-0-7--0-3-0-3h4p3-1-0--0-----|-0-3-0----0-3-0--5-8-7-3-6-5--1p0-| 
  * * *    * * *            *       * * *    * * *  * * * * * * 

|---------------------------------|-----------------------------------|
|---------------------------------|-----------------------------------|
|---------------------------------|-----------------------------------|
|---------------------------------|-----------------------------------|  
|-----------------------------3h6-|-------1---------------------------|
|-0-3-0-7--0-3-0-3h4p3-1-0--0-----|-0-3-0----0-3-0--3-3-3-3-1-1-1-1-0-|
  * * *    * * *            *       * * *    * * *  * * * * * * * * *


|---------------------------------|----------------------------------|
|---------------------------------|----------------------------------|
|---------------------------------|----------------------------------|
|---------------------------------|----------------------------------|  
|-----------------------------3h6-|-------1--------------------------|
|-0-3-0-7--0-3-0-3h4p3-1-0--0-----|-0-3-0----0-3-0--5-8-7-3-6-5--1p0-| 
  * * *    * * *            *       * * *    * * *  * * * * * * 

|---------------------------------|-----------------------------------|
|---------------------------------|-----------------------------------|
|---------------------------------|-----------------------------------|
|---------------------------------|-----------------------------------|  
|-----------------------------3h6-|-------1---------------------------|
|-0-3-0-7--0-3-0-3h4p3-1-0--0-----|-0-3-0----0-3-0--3-3-3-3-1-1-1-1-0-|
  * * *    * * *            *       * * *    * * *  * * * * * * * * *

 (1:08-1:27)
|-------------------------------|--------------------------------|
|-------------------------------|--------------------------------|
|-------------------------------|--------------------------------|
|-------------------------------|--------------------------------|
|-----5-----6-----5-----6-----5-|--------------------------------|
|-0-3---0-3---0-3---0-3---0-3---|-0-3-5-0-5-6-5--3br-1-0-1-4-1-0-|
  * *   * *   * *   * *   * *     * * * * * * *  \   * * * * * *

|-------------------------------|---------------------------------|
|-------------------------------|---------------------------------|
|-------------------------------|---------------------------------|
|-------------------------------|---------------------------------|x2
|-----5-----6-----5-----6-----5-|---5-----------------------6-6-6-|
|-0-3---0-3---0-3---0-3---0-3---|-3---6-3-5-1-0-1/3h4p3-1p0-6-6-6-|
  * *   * *   * *   * *   * *     *   * * * * * * 

Same thing like the last time ring out A|-6-| the last time you repeat.
                                       D|-6-|
 (1:27-1:47)
|------------------------------------|---------------------------------|
|------------------------------------|---------------------------------|
|------------------------------------|---------------------------------|
|---------------------------------x3-|---------------------------------|
|------------------------------------|-------------------------------6-|
|-0-0-0-0-0-0-0-0-0-0-3-0-1-4-1-0----|-3-3-3-3-3-3-2-2-2-2-2h3p2-1p0-6-|
  * * * * * * * * * *                  * * * * * * * * * *       

|------------------------------------|---------------------------------|
|------------------------------------|---------------------------------|
|------------------------------------|---------------------------------|
|---------------------------------x3-|---------------------------------|
|------------------------------------|-------------------------------6-|
|-0-0-0-0-0-0-0-0-0-0-3-0-1-4-1-0----|-3-3-3-3-3-3-2-2-2-2-2h3p2-1p0-6-|
  * * * * * * * * * *                  * * * * * * * * * *
 
 (1:47-2:07)
|---------------------------------|----------------------------------|
|---------------------------------|----------------------------------|
|---------------------------------|----------------------------------|
|---------------------------------|----------------------------------|  
|-----------------------------3h6-|-------1--------------------------|
|-0-3-0-7--0-3-0-3h4p3-1-0--0-----|-0-3-0----0-3-0--5-8-7-3-6-5--1p0-| 
  * * *    * * *            *       * * *    * * *  * * * * * * 

|---------------------------------|-----------------------------------|
|---------------------------------|-----------------------------------|
|---------------------------------|-----------------------------------|
|---------------------------------|-----------------------------------|x2
|-----------------------------3h6-|-------1---------------------------|
|-0-3-0-7--0-3-0-3h4p3-1-0--0-----|-0-3-0----0-3-0--3-3-3-3-1-1-1-1-0-|
  * * *    * * *            *       * * *    * * *  * * * * * * * * * 


Riff before solo  (2:07-2:31)            
|----------------------------------------|
|----------------------------------------|
|----------------------------------------|
|----------------------------------------| x2
|---------3h4p3---------3h4p3-1-0-1-6----|
|-0-0-0-0-3h4p3-0-0-0-0-3h4p3-1-0-1-6----|

|-------------------------------------|
|-------------------------------------|
|-------------------------------------|
|-2-2-2-2-1h2p1-2-2-2-2-1h2p1-2-1-2-8-| x4<--Yea I Know that parts wrong,sry
|-2-2-2-2-------2-2-2-2-------2-1-2-8-|
|-------------------------------------|

|----------------------------------------|
|----------------------------------------|
|----------------------------------------|
|----------------------------------------| x4
|---------3h4p3---------3h4p3-1-0-1-6----|
|-0-0-0-0-3h4p3-0-0-0-0-3h4p3-1-0-1-6----|   

Ok this riff is so hard to pick up, but i know that some parts of it are correct
so dont go so hard on me.
 
 (2:31-2:41)
|-----------------------------|-----------------------------|
|-----------------------------|-----------------------------|
|-----------------------------|-----------------------------|
|-----------------------------|-----------------------------|
|-3h2---2---------------------|-3h2---2---------------------|
|-----0---4-1-0-1-3-1-4-1-0-1-|-----0---4-1-0-1-3-1-4-1-0-1-|
      *   * * * * * * *   * *       *   * * * * * * *   * *


|-------------------------------------------------------------------|
|-------------------------------------------------------------------|
|-------------------------------------------------------------------|
|-------------------------------------------------------------------|
|-5h4---4---------5h4-4-----------7h6---6---------9h8-8-------------|
|-----0---5-2-1-2-------5-2-1-2-7-----0---7-8-5-7-------12/11/10/11-|


 (2:42-2:51)
|------------------------------------|---------------------------------|
|------------------------------------|---------------------------------|
|------------------------------------|---------------------------------|
|---------------------------------x3-|---------------------------------|
|------------------------------------|-------------------------------6-|
|-0-0-0-0-0-0-0-0-0-0-3-0-1-4-1-0----|-3-3-3-3-3-3-2-2-2-2-2h3p2-1p0-6-|
  * * * * * * * * * *                  * * * * * * * * * *
 
 (2:51-3:01)
|-------------------------------|-----------------------------------|
|-------------------------------|-----------------------------------|
|-------------------------------|-----------------------------------|
|---------------------------x3--|--------------------------------x1-|
|-------------------------------|------------------------------6----|
|-00-00-00-00-00-3-0-1-4-1p0----|--33-33-33-33-22-22-2h3p2-1p0-6----|

 (3:01-3:20)
|-------------------------------|--------------------------------|
|-------------------------------|--------------------------------|
|-------------------------------|--------------------------------|
|-------------------------------|--------------------------------|
|-----5-----6-----5-----6-----5-|--------------------------------|
|-0-3---0-3---0-3---0-3---0-3---|-0-3-5-0-5-6-5--3br-1-0-1-4-1-0-|
  * *   * *   * *   * *   * *     * * * * * * *  \   * * * * * * 

|-------------------------------|---------------------------------|
|-------------------------------|---------------------------------|
|-------------------------------|---------------------------------|
|-------------------------------|---------------------------------|x2
|-----5-----6-----5-----6-----5-|---5-----------------------6-6-6-|
|-0-3---0-3---0-3---0-3---0-3---|-3---6-3-5-1-0-1/3h4p3-1p0-6-6-6-|
  * *   * *   * *   * *   * *     *   * * * * * * 
Same thing like the last time ring out A|-6-| the last time you repeat.
                                       D|-6-|
 (3:20-3:59)
|-------------------------|
|-------------------------|
|-------------------------|
|-------------------------| Play until the end of the song,i really dont
|-------------------------| feel like counting how many times it repeats,
|-00-00-00-00-+-00-00-00--| just figure it out yourself.

---------
Break You
---------
(0:00)
|-----------------------------------------------------|
|-----------------------------------------------------|
|-----------------------------------------------------|
|---------------------------------------------3---4---|
|---------------------------------------------1-3-2-4-|
|--00-1p0-1p0-00-1p0-1p0-00-1p0-00-1p0-1p0-00---3---4-|
|PM..         ..         ..     ..         ..   .
|
|-----------------------------------------------------------|
|-----------------------------------------------------------|
|-----------------------------------------------------------|
|-----------------------------------------------------------|
|---------------------------------------------5h8-5h8----4h8|
|--00-1p0-1p0-00-1p0-1p0-00-1p0-00-1p0-1p0-00---------00----|x4
 PM..         ..         ..     ..         ..         ..


(0:22)
|------------------------------------------------------|
|------------------------------------------------------|
|------------------------------------------------------|
|------------------------------------------------------|
|-----5h8-5h8----5h8-5h8----4h8----5h8-5h8----6-5-8-7--|
|--00---------00---------00-----00---------00-6-5-8-7--|
 PM..         ..         ..     ..         ..


|-------------------------------------------------------------|
|-------------------------------------------------------------|
|-------------------------------------------------------------|
|-------------------------------------------------------------|
|-----5h8-5h8----5h8-5h8----4h8----5h8-5h8--------------------|
|--00---------00---------00-----00---------00-8-11-0-7-10-0-6b|
 PM..         ..         ..     ..         .. . .. . . .. . 


 Guitar 1
|------------------------------------------------------|
|------------------------------------------------------|
|------------------------------------------------------|
|------------------------------------------------------|
|-----5h8-5h8----5h8-5h8----4h8----5h8-5h8----6-5-8-7--|
|--00---------00---------00-----00---------00-6-5-8-7--|
|PM..         ..         ..     ..         ..
|
|Guitar 2
|-------------------------------------------------------------|
|-------------------------------------------------------------|
|-------------------------------------------------------------|
|-------------------------------------------------------------|
|-----8h12-8h12----8h12-8h12----7h11----8h12-8h12----6-5-8-7--|
|--00-----------00-----------00------00-----------00-6-5-8-7--|
 PM..           ..           ..      ..           ..

 
 Guitar 1
|-----------------------------------------------------------|
|-----------------------------------------------------------|
|-----------------------------------------------------------|
|---------------------------------------------------------8-|
|-----5h8-5h8----5h8-5h8----4h8----5h8-5h8----3-----5-----6-|
|--00---------00---------00-----00---------00---6-5---6-5---|
|PM..         ..         ..     ..         ..   . .   . . 
|
|Guitar 2
|------------------------------------------------------------------|
|------------------------------------------------------------------|
|------------------------------------------------------------------|
|----------------------------------------------------------------8-|
|-----8h12-8h12----8h12-8h12----7h11----8h12-8h12----3-----5-----6-|
|--00-----------00-----------00------00-----------00---6-5---6-5---|
 PM..           ..           ..      ..           ..   . .   . .


(0:35)  (x4)   Did not tab the background guitar
|---------------------------------------------------------------|
|---------------------------------------------------------------|
|---------------------------------------------------------------|
|-7\---------------------------------------4-3b-----------------|
|-5\------------------------------------------------------------|
|----0000-1p0-0000-1p0-1p0-000000-1p0-0000------0000-1p0-000000-|
 PM  ....     ....         ......     ....      ....     ......


|-----------------------------------|
|-----------------------------------|
|-----------------------------------|
|-----------------------------------|
|----0-1-0-1-3-1-0-4-3-1-0-------0--|
|--5-----------------------5-4-5----| Ending 1,2,3
 PM. . . . . . . . . . . . . . . .


|-----------------------------------|
|-----------------------------------|
|-----------------------------------|
|-----------------------------------|
|----0-1-0-1-3-1-0-4-3-1-0----------|
|--5-----------------------5p0-1-3--| Ending 4
 PM. . . . . . . . . . . .


(1:10)
|-------------------------------------------------------------------|
|-------------------------------------------------------------------|
|-------------------------------------------------------------------|
|-----------------------------------------------------------2---5---|
|----8---7---8---7---8---7---1-4------8---7---1-4-4h5p4-1-0---0---3-|
|--0---0---0---0---0---0---0------000---0---0-----------------------|
 PM.   .   .   .   .   .   .      ...   .   . . .


                              (X3)
|----------------------------------|-----------------------------------|
|----------------------------------|-----------------------------------|
|----------------------------------|-----------------------------------|
|----------------------------------|---------------------------2---5---|
|------8---7---8---7---8---7---1-4-|-----8---7---1-4-4h5p4-1-0---0---3-|
|--000---0---0---0---0---0---0-----|-000---0---0-----------------------|x2
 PM...   .   .   .   .   .   .       ...   .   . . .

Not sure what the second guitar plays over this the second time



(1:33)  (x4)   Did not tab the background guitar
|---------------------------------------------------------------|
|---------------------------------------------------------------|
|---------------------------------------------------------------|
|-7\---------------------------------------4-3b-----------------|
|-5\------------------------------------------------------------|
|----0000-1p0-0000-1p0-1p0-000000-1p0-0000------0000-1p0-000000-|
 PM  ....     ....         ......     ....      ....     ......


|-----------------------------------|
|-----------------------------------|
|-----------------------------------|
|-----------------------------------|
|----0-1-0-1-3-1-0-4-3-1-0-------0--|
|--5-----------------------5-4-5----| Ending 1,2,3
 PM. . . . . . . . . . . . . . . .


|-------------------------------------|
|-------------------------------------|
|--------------------------------3----|
|----------------------------2-----1--|
|----0-1-0-1-3-1-0-4h5p4-1-0---0------|
|--5----------------------------------| Ending 4
 PM. . . . . . . .

(2:07)                         (X3)
|----------------------------------|-----------------------------------|
|----------------------------------|-----------------------------------|
|----------------------------------|-----------------------------------|
|----------------------------------|---------------------------2---5---|
|------8---7---8---7---8---7---1-4-|-----8---7---1-4-4h5p4-1-0---0---3-|
|--000---0---0---0---0---0---0-----|-000---0---0-----------------------|
 PM...   .   .   .   .   .   .       ...   .   . . .         


(2:15)   Guitar 1    
|----------------------------------------|
|----------------------------------------|
|----------------------------------------|
|----------------------------------------|
|--0-----6----7--3--0-----6----77-7-33-3-|
|--0-----6----7--3--0-----6----77-7-33-3-|
|PM                            .    .    
|
|(2:15)   Guitar 2     
|------------------------------------------------------------------------|
|------------------------------------------------------------------------|
|-10-9-7-6-7-6h7p6---9--8-7-5--9-9h10p9-7-6--10-9-7-6-7-6h7p6---9--8-7-5-|
|------------------8------------------------------------------8----------|
|------------------------------------------------------------------------|
|------------------------------------------------------------------------|
 PM                .                                          .

(2:24)   Guitar 1    
|-------------------------------------------------|
|-------------------------------------------------|
|-------------------------------------------------|
|-------------------------------------------------|
|0---6---8---7---0---6---8--10-10--10--11-11--11--|
|0---6---8---7---0---6---8--10-10--10--11-11--11--|
PM                          ..         ..

(2:24)   Guitar 2
|---------------------------------------------------------------------|
|---------------------------------------------------------------------|
|-10-9-6b--8-7-5b--10-9-7b--9-9h10p9-7-6---10-9-6b--8-7-5b--10-9-7b---|
|---------------------------------------------------------------------|
|---------------------------------------------------------------------|
|---------------------------------------------------------------------|


(2:33)                                        
|-----------------------------------------------------|
|-----------------------------------------------------|
|-----------------------------------------------------|
|---------------------------------------------3---4---|
|---------------------------------------------1-3-2-4-|
|--00-1p0-1p0-00-1p0-1p0-00-1p0-00-1p0-1p0-00---3---4-|
|PM..         ..         ..     ..         ..   .
|
|-----------------------------------------------------------|
|-----------------------------------------------------------|
|-----------------------------------------------------------|
|-----------------------------------------------------------|
|---------------------------------------------5h8-5h8----4h8|
|--00-1p0-1p0-00-1p0-1p0-00-1p0-00-1p0-1p0-00---------00----|x2
 PM..         ..         ..     ..         ..         ..


(2:46)
|---------------------------------------------------------|
|---------------------------------------------------------|
|---------------------------------------------------------|
|---------------------------4---------------------------3-|
|---------------------------------------------------------|  
|--00--00--00--00--000--001----00--00--00--00--000--001---|
 PM..  ..  ..  ..  ...  ...    ..  ..  ..  ..  ...  ...


(2:52)                                         
|-----------------------------------------------------|
|-----------------------------------------------------|
|-----------------------------------------------------|
|---------------------------------------------3---4---|
|---------------------------------------------1-3-2-4-|
|--00-1p0-1p0-00-1p0-1p0-00-1p0-00-1p0-1p0-00---3---4-|
 PM..         ..         ..     ..         ..   .

|-----------------------------------------------------------|
|-----------------------------------------------------------|
|-----------------------------------------------------------|
|-----------------------------------------------------------|
|---------------------------------------------5h8-5h8----4h8|
|--00-1p0-1p0-00-1p0-1p0-00-1p0-00-1p0-1p0-00---------00----|
 PM..         ..         ..     ..         ..         ..


(2:58)
|---------------------------------------------------------|
|---------------------------------------------------------|
|---------------------------------------------------------|
|---------------------------4---------------------------3-|
|---------------------------------------------------------|  
|--00--00--00--00--000--001----00--00--00--00--000--001---|
 PM..  ..  ..  ..  ...  ...    ..  ..  ..  ..  ...  ...


(3:05)   Guitar 1                                      
|-----------------------------------------------------|
|-----------------------------------------------------|
|-----------------------------------------------------|
|---------------------------------------------3---4---|
|---------------------------------------------1-3-2-4-|
|--00-1p0-1p0-00-1p0-1p0-00-1p0-00-1p0-1p0-00---3---4-|
|PM..         ..         ..     ..         ..   .
|
|(3:05)   Guitar 2
|-----------------------------------------------------|
|-----------------------------------------------------|
|-----------------------------------------------------|
|---------------------------------------------3---4---|
|---------------------------------------------1-3-2-4-| 
|--00---------00---------00---------00-----00---3---4-|
|PM..         ..         ..         ..     ..   . 
|
|Guitar 1
|-----------------------------------------------------------|
|-----------------------------------------------------------|
|-----------------------------------------------------------|
|-----------------------------------------------------------|
|---------------------------------------------5h8-5h8----4h8|
|--00-1p0-1p0-00-1p0-1p0-00-1p0-00-1p0-1p0-00---------00----|
|PM..         ..         ..     ..         ..         ..
|
|Guitar 2
|------------------------------------------------------------|
|------------------------------------------------------------|
|------------------------------------------------------------|
|------------------------------------------------------------|
|---------------------------------------------5h8-5h8----4h8-|All
|--00---------00---------00---------00-----00---------00-----|x2
 PM..         ..         ..         ..     ..         ..


(3:17)                                    
|-----------------------------------------------------|
|-----------------------------------------------------|
|-----------------------------------------------------|
|---------------------------------------------3---4---|
|---------------------------------------------1-3-2-4-|
|--00-1p0-1p0-00-1p0-1p0-00-1p0-00-1p0-1p0-00---3---4-|
|PM..         ..         ..     ..         ..   .
|
|-----------------------------------------------------|
|-----------------------------------------------------|
|-----------------------------------------------------|
|---------------------------------------------3-------|
|---------------------------------------------1-3-2-1-|
|--00-1p0-1p0-00-1p0-1p0-00-1p0-00-1p0-1p0-00---3-2-1-|x2
 PM..         ..         ..     ..         ..   . . .

----------------
What I've Become
----------------
E||----------------------||----------------------------|
B||----------------------||----------------------------|
G||----------------------||*---------------------------|
D||----------------------||*---------------------------|
A||--3----2----6----5----||----------------------------|
D||--3----2----6----5----||---0--0--0--0--0-0-0--0--0--|


                                                           
----------------------------|-----------------------------|
----------------------------|-----------------------------|
----------------------------|-----------------------------|
----------------------------|-----------------------------|
----------------------------|-----------------------------|
--0--0-0-0--0--0-0-0--0--0--|--0--0-0-0--0--0-0-0--0-0-0--|


                       3x                                                    
-----------------------||----------------------||---------------------------|
-----------------------||----------------------||---------------------------|
----------------------*||----------------------||*--------------------------|
----------------------*||----------------------||*--------------------------|
--3----2----6----5-----||--3----2----6----5----||---------------------------|
--3----2----6----5-----||--3----2----6----5----||---3--5--3--5--3--5--3--5--|


                                                      
--------------------------|--------------------------|
--------------------------|--------------------------|
--------------------------|--------------------------|
--------------------------|--------------------------|
--------------------------|--------------------------|
--6--5--4--3--0--2--3--5--|--3--5--3--5--3--5--3--5--|


                                                      
--------------------------|--------------------------|
--------------------------|--------------------------|
--------------------------|--------------------------|
--------------------------|--------------------------|
--------------------------|--------------------------|
--6--5--4--3--0--2--3--5--|--3--5--3--5--3--5--3--5--|


                                                      
--------------------------|--------------------------|
--------------------------|--------------------------|
--------------------------|--------------------------|
--------------------------|--------------------------|
--------------------------|--------------------------|
--6--5--4--3--0--2--3--5--|--3--5--3--5--3--5--3--5--|


                                                          
---------------------------||----------------------------|
---------------------------||----------------------------|
--------------------------*||*---------------------------|
--------------------------*||*---------------------------|
--5--4--------4--3---------||----------------------------|
--------7--6--------6--5---||---0--0--0--0--0-0-0--0--0--|


                                                           
----------------------------|-----------------------------|
----------------------------|-----------------------------|
----------------------------|-----------------------------|
----------------------------|-----------------------------|
----------------------------|-----------------------------|
--0--0-0-0--0--0-0-0--0--0--|--0--0-0-0--0--0-0-0--0-0-0--|


                       3x                                                       
-----------------------||---------------------------|--------------------------|
-----------------------||---------------------------|--------------------------|
----------------------*||*--------------------------|--------------------------|
----------------------*||*--------------------------|--------------------------|
--3----2----6----5-----||---------------------------|--------------------------|
--3----2----6----5-----||---3--5--3--5--3--5--3--5--|--6--5--4--3--0--2--3--5--|


                                                      
--------------------------|--------------------------|
--------------------------|--------------------------|
--------------------------|--------------------------|
--------------------------|--------------------------|
--------------------------|--------------------------|
--3--5--3--5--3--5--3--5--|--6--5--4--3--0--2--3--5--|


                                                      
--------------------------|--------------------------|
--------------------------|--------------------------|
--------------------------|--------------------------|
--------------------------|--------------------------|
--------------------------|--------------------------|
--3--5--3--5--3--5--3--5--|--6--5--4--3--0--2--3--5--|


                                                                           
--------------------------|---------------------------||------------------|
--------------------------|---------------------------||------------------|
--------------------------|--------------------------*||------------------|
--------------------------|--------------------------*||------------------|
--------------------------|--5--4--------4--3---------||------------------|
--3--5--3--5--3--5--3--5--|--------7--6--------6--5---||------------------|


                                                             
------------------|---------------------|-------------------|
------------------|---------------------|-------------------|
------------------|---------------------|-------------------|
------------------|---------------------|-------------------|
------------------|--0----------0----0--|--0----------------|
------------------|--0----------0----0--|--0----------------|


                                                            
|-----------------------------|----------------------------|
|-----------------------------|----------------------------|
|*----------------------------|----------------------------|
|*----------------------------|----------------------------|
|-----------------------------|----------------------------|
|---0-0-0--0--0--0-0-0--0--0--|--0-0-0--0--0--0-0-0--0--0--|


                                                          
----------------------------|----------------------------|
----------------------------|----------------------------|
----------------------------|----------------------------|
----------------------------|----------------------------|
----------------------------|----------------------------|
--0-0-0--0--0--0-0-0--0--0--|--0-0-0--0--0--0-0-0--0--0--|


                                                          
----------------------------|----------------------------|
----------------------------|----------------------------|
----------------------------|----------------------------|
----------------------------|----------------------------|
----------------------------|----------------------------|
--0-0-0--6--6--0-0-0--6--6--|--0-0-0--6--6--0-0-0--6--6--|


                                                          2x
----------------------------|-----------------------------||
----------------------------|-----------------------------||
----------------------------|----------------------------*||
----------------------------|----------------------------*||
----------------------------|-----------------------------||
--0-0-0--6--6--0-0-0--6--6--|--0-0-0--6--6--0-0-0--6--6---||


                                                                  
--------------------------------|--------------------------------|
--------------------------------|--------------------------------|
--------------------------------|--------------------------------|
--------------------------------|--------------------------------|
--------------------------------|--------------------------------|
--0-0-0--12--12--0-0-0--12--12--|--0-0-0--12--12--0-0-0--12--12--|


                                                                  
--------------------------------|--------------------------------|
--------------------------------|--------------------------------|
--------------------------------|--------------------------------|
--------------------------------|--------------------------------|
--------------------------------|--------------------------------|
--0-0-0--12--12--0-0-0--12--12--|--0-0-0--12--12--0-0-0--12--12--|


                                                                  
--------------------------------|--------------------------------|
--------------------------------|--------------------------------|
--------------------------------|--------------------------------|
--------------------------------|--------------------------------|
--------------------------------|--------------------------------|
--0-0-0--12--12--0-0-0--12--12--|--0-0-0--12--12--0-0-0--12--12--|


                                                        
----------------------------|--------------------------|
----------------------------|--------------------------|
----------------------------|--------------------------|
----------------------------|--------------------------|
----------------------------|--------------3-----3--6--|
--0-0-0--12--12--0----6--5--|--3--4--5--6-----6--------|


                                                         
|---------------------------|---------------------------|
|---------------------------|---------------------------|
|*--------------------------|---------------------------|
|*--------------------------|---------------------------|
|---5-----------------------|---------------------------|
|------0--0--0--0--0--0--0--|--0-0-0--0--0--0--0--0--0--|


                                                       3x
---------------------------|---------------------------||
---------------------------|---------------------------||
---------------------------|--------------------------*||
---------------------------|--------------------------*||
---------------------------|--------------3-----3--6---||
--0-0-0--0--0--0--0--6--5--|--3--4--5--6-----6---------||


                                                                        
-----------------------|------------------------|----------------------|
-----------------------|------------------------|----------------------|
*----------------------|------------------------|----------------------|
*----------------------|------------------------|----------------------|
-------0--1--0--0------|--0--0--1--1------0--1--|------0--1--0--0------|
-------0--1--0--0------|--0--0--1--1------0--1--|------0--1--0--0------|


                                                         
---------------------------||---------------------------|
---------------------------||---------------------------|
--------------------------*||*--------------------------|
--------------2-----------*||*--7--6--------------6--6--|
--0--1--0--0--0--1--0--1---||---5--5--0--1--0--0--5--5--|
--0--1--0--0-----1--0--1---||---------0--1--0--0--------|


                                                      
--------------------------|--------------------------|
--------------------------|--------------------------|
--------------------------|--------------------------|
--------------6--7--------|--5--5--------------3--3--|
--0--0--1--1--5--5--0--1--|--3--3--0--1--0--0--1--1--|
--0--0--1--1--------0--1--|--------0--1--0--0--------|


                                                         
---------------------------||---------------------------|
---------------------------||---------------------------|
--------------------------*||*--------------------------|
--------------2-----------*||*--7--6--------------6--6--|
--0--1--0--0--0--1--0--1---||---5--5--0--1--0--0--5--5--|
--0--1--0--0-----1--0--1---||---------0--1--0--0--------|


                                                      
--------------------------|--------------------------|
--------------------------|--------------------------|
--------------------------|--------------------------|
--------------6--7--------|--5--5--------------3--3--|
--0--0--1--1--5--5--0--1--|--3--3--0--1--0--0--1--1--|
--0--0--1--1--------0--1--|--------0--1--0--0--------|


                           2x                           
---------------------------||--------------------------|
---------------------------||--------------------------|
--------------------------*||--------------------------|
--------------2-----------*||--7--6--------------6--6--|
--0--1--0--0--0--1--0--1---||--5--5--0--1--0--0--5--5--|
--0--1--0--0-----1--0--1---||--------0--1--0--0--------|


                                                                              
--------------------------|--------------------------|-----------------------|
--------------------------|--------------------------|-----------------------|
--------------------------|--------------------------|-----------------------|
--------------6--7--------|--5--5--------------3--3--|--------------2--------|
--0--0--1--1--5--5--0--1--|--3--3--0--1--0--0--1--1--|--0--1--0--0--0--------|
--0--0--1--1--------0--1--|--------0--1--0--0--------|--0--1--0--0-----------|


                                                        
|---------------------------|--------------------------|
|---------------------------|--------------------------|
|*--------------------------|--------------------------|
|*--7--6--------------6--6--|--------------6--7--------|
|---5--5--0--1--0--0--5--5--|--0--0--1--1--5--5--0--1--|
|---------0--1--0--0--------|--0--0--1--1--------0--1--|


                                                      3x                     
--------------------------|---------------------------||--------------------|
--------------------------|---------------------------||--------------------|
--------------------------|--------------------------*||--------------------|
--5--5--------------3--3--|--------------2-----------*||--------------------|
--3--3--0--1--0--0--1--1--|--0--1--0--0--0--1--0--1---||--0--0--------------|
--------0--1--0--0--------|--0--1--0--0-----1--0--1---||--0--0--------------|





Guitar2



                                                        
E||----------------------||----------------------------|
B||----------------------||----------------------------|
G||----------------------||*---------------------------|
D||----------------------||*---------------------------|
A||--3----2----6----5----||----------------------------|
D||--3----2----6----5----||---0--0--0--0--0-0-0--0--0--|


                                                           
----------------------------|-----------------------------|
----------------------------|-----------------------------|
----------------------------|-----------------------------|
----------------------------|-----------------------------|
----------------------------|-----------------------------|
--0--0-0-0--0--0-0-0--0--0--|--0--0-0-0--0--0-0-0--0-0-0--|


                       3x                                                    
-----------------------||----------------------||---------------------------|
-----------------------||----------------------||---------------------------|
----------------------*||----------------------||*--------------------------|
----------------------*||----------------------||*--------------------------|
--3----2----6----5-----||--3----2----6----5----||---------------------------|
--3----2----6----5-----||--3----2----6----5----||---3--5--3--5--3--5--3--5--|


                                                      
--------------------------|--------------------------|
--------------------------|--------------------------|
--------------------------|--------------------------|
--------------------------|--------------------------|
--------------------------|--------------------------|
--6--5--4--3--0--2--3--5--|--3--5--3--5--3--5--3--5--|



                                                      
--------------------------|--------------------------|
--------------------------|--------------------------|
--------------------------|--------------------------|
--------------------------|--------------------------|
--------------------------|--------------------------|
--6--5--4--3--0--2--3--5--|--3--5--3--5--3--5--3--5--|


                                                      
--------------------------|--------------------------|
--------------------------|--------------------------|
--------------------------|--------------------------|
--------------------------|--------------------------|
--------------------------|--------------------------|
--6--5--4--3--0--2--3--5--|--3--5--3--5--3--5--3--5--|


                                                          
---------------------------||----------------------------|
---------------------------||----------------------------|
--------------------------*||*---------------------------|
--------------------------*||*---------------------------|
--5--4--------4--3---------||----------------------------|
--------7--6--------6--5---||---0--0--0--0--0-0-0--0--0--|


                                                           
----------------------------|-----------------------------|
----------------------------|-----------------------------|
----------------------------|-----------------------------|
----------------------------|-----------------------------|
----------------------------|-----------------------------|
--0--0-0-0--0--0-0-0--0--0--|--0--0-0-0--0--0-0-0--0-0-0--|


                       3x                                                       
-----------------------||---------------------------|--------------------------|
-----------------------||---------------------------|--------------------------|
----------------------*||*--------------------------|--------------------------|
----------------------*||*--------------------------|--------------------------|
--3----2----6----5-----||---------------------------|--------------------------|
--3----2----6----5-----||---3--5--3--5--3--5--3--5--|--6--5--4--3--0--2--3--5--|


                                                      
--------------------------|--------------------------|
--------------------------|--------------------------|
--------------------------|--------------------------|
--------------------------|--------------------------|
--------------------------|--------------------------|
--3--5--3--5--3--5--3--5--|--6--5--4--3--0--2--3--5--|


                                                      
--------------------------|--------------------------|
--------------------------|--------------------------|
--------------------------|--------------------------|
--------------------------|--------------------------|
--------------------------|--------------------------|
--3--5--3--5--3--5--3--5--|--6--5--4--3--0--2--3--5--|


                                                        
--------------------------|---------------------------||
--------------------------|---------------------------||
--------------------------|--------------------------*||
--------------------------|--------------------------*||
--------------------------|--5--4--------4--3---------||
--3--5--3--5--3--5--3--5--|--------7--6--------6--5---||


                                                                  
--------------------------------|--------------------------------|
--------------------------------|--------------------------------|
--------------------------------|--------------------------------|
--------------------------------|--------------------------------|
--------------------------------|--------------------------------|
--0-0-0--12--12--0-0-0--12--12--|--0-0-0--12--12--0-0-0--12--12--|


                                                                  
--------------------------------|--------------------------------|
--------------------------------|--------------------------------|
--------------------------------|--------------------------------|
--------------------------------|--------------------------------|
--------------------------------|--------------------------------|
--0-0-0--12--12--0-0-0--12--12--|--0-0-0--12--12--0-0-0--12--12--|


                                                            
|-----------------------------|----------------------------|
|-----------------------------|----------------------------|
|*----------------------------|----------------------------|
|*----------------------------|----------------------------|
|-----------------------------|----------------------------|
|---0-0-0--0--0--0-0-0--0--0--|--0-0-0--0--0--0-0-0--0--0--|


                                                          
----------------------------|----------------------------|
----------------------------|----------------------------|
----------------------------|----------------------------|
----------------------------|----------------------------|
----------------------------|----------------------------|
--0-0-0--0--0--0-0-0--0--0--|--0-0-0--0--0--0-0-0--0--0--|


                                                          
----------------------------|----------------------------|
----------------------------|----------------------------|
----------------------------|----------------------------|
----------------------------|----------------------------|
----------------------------|----------------------------|
--0-0-0--6--6--0-0-0--6--6--|--0-0-0--6--6--0-0-0--6--6--|


                                                          2x
----------------------------|-----------------------------||
----------------------------|-----------------------------||
----------------------------|----------------------------*||
----------------------------|----------------------------*||
----------------------------|-----------------------------||
--0-0-0--6--6--0-0-0--6--6--|--0-0-0--6--6--0-0-0--6--6---||


                                                                  
--------------------------------|--------------------------------|
--------------------------------|--------------------------------|
--------------------------------|--------------------------------|
--------------------------------|--------------------------------|
--------------------------------|--------------------------------|
--0-0-0--12--12--0-0-0--12--12--|--0-0-0--12--12--0-0-0--12--12--|


                                                                  
--------------------------------|--------------------------------|
--------------------------------|--------------------------------|
--------------------------------|--------------------------------|
--------------------------------|--------------------------------|
--------------------------------|--------------------------------|
--0-0-0--12--12--0-0-0--12--12--|--0-0-0--12--12--0-0-0--12--12--|


                                                                  
--------------------------------|--------------------------------|
--------------------------------|--------------------------------|
--------------------------------|--------------------------------|
--------------------------------|--------------------------------|
--------------------------------|--------------------------------|
--0-0-0--12--12--0-0-0--12--12--|--0-0-0--12--12--0-0-0--12--12--|


                                                        
----------------------------|--------------------------|
----------------------------|--------------------------|
----------------------------|--------------------------|
----------------------------|--------------------------|
----------------------------|--------------3-----3--6--|
--0-0-0--12--12--0----6--5--|--3--4--5--6-----6--------|


                                                         
|---------------------------|---------------------------|
|---------------------------|---------------------------|
|*--------------------------|---------------------------|
|*--------------------------|---------------------------|
|---5-----------------------|---------------------------|
|------0--0--0--0--0--0--0--|--0-0-0--0--0--0--0--0--0--|


                                                       3x
---------------------------|---------------------------||
---------------------------|---------------------------||
---------------------------|--------------------------*||
---------------------------|--------------------------*||
---------------------------|--------------3-----3--6---||
--0-0-0--0--0--0--0--6--5--|--3--4--5--6-----6---------||


                                                                        
-----------------------|------------------------|----------------------|
-----------------------|------------------------|----------------------|
*----------------------|------------------------|----------------------|
*----------------------|------------------------|----------------------|
-------0--1--0--0------|--0--0--1--1------0--1--|------0--1--0--0------|
-------0--1--0--0------|--0--0--1--1------0--1--|------0--1--0--0------|


                                                                              
---------------------------||-----------------------|------------------------|
---------------------------||-----------------------|------------------------|
--------------------------*||*----------------------|------------------------|
--------------2-----------*||*----------------------|------------------------|
--0--1--0--0--0--1--0--1---||-------0--1--0--0------|--0--0--1--1------0--1--|
--0--1--0--0-----1--0--1---||-------0--1--0--0------|--0--0--1--1------0--1--|


                                                                                
----------------------|---------------------------||---------------------------|
----------------------|---------------------------||---------------------------|
----------------------|--------------------------*||*--------------------------|
----------------------|--------------2-----------*||*--7--6--------------6--6--|
------0--1--0--0------|--0--1--0--0--0--1--0--1---||---5--5--0--1--0--0--5--5--|
------0--1--0--0------|--0--1--0--0-----1--0--1---||---------0--1--0--0--------|


                                                      
--------------------------|--------------------------|
--------------------------|--------------------------|
--------------------------|--------------------------|
--------------6--7--------|--5--5--------------3--3--|
--0--0--1--1--5--5--0--1--|--3--3--0--1--0--0--1--1--|
--0--0--1--1--------0--1--|--------0--1--0--0--------|


                           2x                           
---------------------------||--------------------------|
---------------------------||--------------------------|
--------------------------*||--------------------------|
--------------2-----------*||--7--6--------------6--6--|
--0--1--0--0--0--1--0--1---||--5--5--0--1--0--0--5--5--|
--0--1--0--0-----1--0--1---||--------0--1--0--0--------|


                                                                              
--------------------------|--------------------------|-----------------------|
--------------------------|--------------------------|-----------------------|
--------------------------|--------------------------|-----------------------|
--------------6--7--------|--5--5--------------3--3--|--------------2--------|
--0--0--1--1--5--5--0--1--|--3--3--0--1--0--0--1--1--|--0--1--0--0--0--------|
--0--0--1--1--------0--1--|--------0--1--0--0--------|--0--1--0--0-----------|


                                                        
|---------------------------|--------------------------|
|---------------------------|--------------------------|
|*--------------------------|--------------------------|
|*--7--6--------------6--6--|--------------6--7--------|
|---5--5--0--1--0--0--5--5--|--0--0--1--1--5--5--0--1--|
|---------0--1--0--0--------|--0--0--1--1--------0--1--|


                                                      3x                     
--------------------------|---------------------------||--------------------|
--------------------------|---------------------------||--------------------|
--------------------------|--------------------------*||--------------------|
--5--5--------------3--3--|--------------2-----------*||--------------------|
--3--3--0--1--0--0--1--1--|--0--1--0--0--0--1--0--1---||--0--0--------------|
--------0--1--0--0--------|--0--1--0--0-----1--0--1---||--0--0--------------|

-----------------
Ashes Of The Wake
-----------------
E||----------------------------------------|-----------------------------------------| 
B||----------------------------------------|-----------------------------------------| 
G||----------------------------------------|-----------------------------------------| 
D||----------------------------------------|---------------------------------8----8--| 
A||------------4--5--7--8--7--5------------|---------------------------------6----6--| 
D||--0-0-0--0--------------------0--0-0-0--|--13--10--9--12--8--7--0--0-0-0----------| 


                                                                                          
----------------------------------------|-----------------------------------------------| 
----------------------------------------|-----------------------------------------------| 
----------------------------------------|-----------------------10--9-------------------| 
----------------------------------------|------------------------------11--11-12-11--8--| 
------------4--5--7--8--7--5------------|-----------------------------------------------| 
--0-0-0--0--------------------0--0-0-0--|--13--10--9--12--8--7--------------------------| 


                                                                                    
----------------------------------------|-----------------------------------------| 
----------------------------------------|-----------------------------------------| 
----------------------------------------|-----------------------------------------| 
----------------------------------------|---------------------------------8----8--| 
------------4--5--7--8--7--5------------|---------------------------------6----6--| 
--0-0-0--0--------------------0--0-0-0--|--13--10--9--12--8--7--0--0-0-0----------| 


                                                                                
----------------------------------------|--------------------------------------| 
----------------------------------------|--------------------------------------| 
----------------------------------------|--------------------------------------| 
----------------------------------------|--------------------------------------| 
------------4--5--7--8--7--5------------|------------------------------1----1--| 
--0-0-0--0--------------------0--0-0-0--|--8--5--4--7--4--3--0--0-0-0--1----1--| 


                                                                                          
----------------------------------------|-----------------------------------------------| 
----------------------------------------|-----------------------------------------------| 
----------------------------------------|-----------------------10--9-------------------| 
----------------------------------------|------------------------------11--11-12-11--8--| 
------------4--5--7--8--7--5------------|-----------------------------------------------| 
--0-0-0--0--------------------0--0-0-0--|--13--10--9--12--8--7--------------------------| 


                                                                                    
----------------------------------------|-----------------------------------------| 
----------------------------------------|-----------------------------------------| 
----------------------------------------|-----------------------------------------| 
----------------------------------------|---------------------------------8----8--| 
------------4--5--7--8--7--5------------|---------------------------------6----6--| 
--0-0-0--0--------------------0--0-0-0--|--13--10--9--12--8--7--0--0-0-0----------| 


                                                                                        
----------------------------------------|----------------------------------------------| 
----------------------------------------|----------------------------------------------| 
----------------------------------------|--10--9---------------------------------------| 
----------------------------------------|---------11--11-12-11--8----------------------| 
------------4--5--7--8--7--5------------|--------------------------10--9--6------------| 
--0-0-0--0--------------------0--0-0-0--|------------------------------------4-5-4--1--| 


                                                                                  
----------------------------------------|---------------------------------------| 
----------------------------------------|---------------------------------------| 
----------------------------------------|---------------------------------------| 
----------------------------------------|---------------------------------------| 
--5-6-5---------------------------------|------------------------------8--7--4--| 
---------0--0--0--0--0--0-0-0--0--0--0--|--0--0-0-0--0--0--0--0--8--7-----------| 


                                                                            
----------------------------------------|----------------------------------| 
----------------------------------------|----------------------------------| 
----------------------------------------|----------------------------------| 
----------------------------------------|----------------------------------| 
--5-6-5---------------------------------|-----6----6----------3----3-------| 
---------0--0--0--0--0--0-0-0--0--0--0--|--0--6----6----0--0--3----3----0--| 


                                                                                  
----------------------------------------|---------------------------------------| 
----------------------------------------|---------------------------------------| 
----------------------------------------|---------------------------------------| 
----------------------------------------|---------------------------------------| 
--5-6-5---------------------------------|------------------------------8--7--4--| 
---------0--0--0--0--0--0-0-0--0--0--0--|--0--0-0-0--0--0--0--0--8--7-----------| 


                                                                            
----------------------------------------|----------------------------------| 
----------------------------------------|----------------------------------| 
----------------------------------------|----------------------------------| 
----------------------------------------|----------------------------------| 
--5-6-5---------------------------------|-----3----3----------4----4-------| 
---------0--0--0--0--0--0-0-0--0--0--0--|--0--3----3----0--0--4----4----0--| 


                                                                                  
----------------------------------------|---------------------------------------| 
----------------------------------------|---------------------------------------| 
----------------------------------------|---------------------------------------| 
----------------------------------------|---------------------------------------| 
--5-6-5---------------------------------|------------------------------8--7--4--| 
---------0--0--0--0--0--0-0-0--0--0--0--|--0--0-0-0--0--0--0--0--8--7-----------| 


                                                                            
----------------------------------------|----------------------------------| 
----------------------------------------|----------------------------------| 
----------------------------------------|----------------------------------| 
----------------------------------------|----------------------------------| 
--5-6-5---------------------------------|-----6----6----------3----3-------| 
---------0--0--0--0--0--0-0-0--0--0--0--|--0--6----6----0--0--3----3----0--| 


                                                                                  
----------------------------------------|---------------------------------------| 
----------------------------------------|---------------------------------------| 
----------------------------------------|---------------------------------------| 
----------------------------------------|---------------------------------------| 
--5-6-5---------------------------------|------------------------------8--7--4--| 
---------0--0--0--0--0--0-0-0--0--0--0--|--0--0-0-0--0--0--0--0--8--7-----------| 


                                                                            
----------------------------------------|----------------------------------| 
----------------------------------------|----------------------------------| 
----------------------------------------|----------------------------------| 
----------------------------------------|----------------------------------| 
--5-6-5---------------------------------|-----3----3----------4----4-------| 
---------0--0--0--0--0--0-0-0--0--0--0--|--0--3----3----0--0--4----4----0--| 


                                                  
-----------------------------------------|------|| 
-----------------------------------------|------|| 
-----------------------------------------|------|| 
-----------------------------------------|------|| 
-------------------------------3----5----|------|| 
--7-7-7-7-6-6-6-6-3-3-3-3-6----3----5----|------|| 

                                                1,3     2        4 
||---------------------------------------------|-------|--------|------|| 
||-------------------------------2-2--3-3--3-3-|--3-3--|--------|------|| 
||*------------------------------6-6--7-7--7-7-|--7-7-*|-------*|------|| 
||*--------------------------------------------|------*|-------*|------|| 
||--------------------------1-1--5-5--6-6--6-6-|--3-3--|----1-1-|--8-8-|| 
||-0-0000000-0000000-000000-1-1--5-5--6-6--6-6-|--3-3--|--0-1-1-|--8-8-|| 

                                                                                   4x 
||---------------------------------------------------------------------------------|| 
||---------------------------------------------------------------------------------|| 
||*-------------------------------------------------------------------------------*|| 
||*--------------------------------------------------------------------------3----*|| 

||---------------------------------------------------------------------------1-2-5-|| 
||-222-2-22-/7-/15^-15^--222-2-22-/8-/15^-15^--333-3-33-/9-/17^-17^--111-1-1---2-5-|| 

||-------------------------------------------------------------- 
||-------------------------------------------------------------- 
||-------------------------------------------------------------- 
||-------------------------------------------------------------- 
||-----1h2---1h2-5-7-8-7-5-4-----1h2---1h2--5-4-6-----1h2---1h2- 
||-000-1h2-0-1h2-------------000-1h2-0-1h2--------000-1h2-0-1h2- 


-------------------------------|| 
-------------------------------|| 
-------------------------------|| 
-------------------------------|| 
--5-7-8-7-5-4-----1h2---1h2-\--|| 
--------------000-1h2-0-1h2-\--|| 

||-------------------------------------------------------------- 
||-------------------------------------------------------------- 
||*------------------------------------------------------------- 
||*------------------------------------------------------------- 
||-----1h2---1h2-5-7-8-7-5-4-----1h2---1h2--5-4-6-----1h2---1h2- 
||-000-1h2-0-1h2-------------000-1h2-0-1h2--------000-1h2-0-1h2- 

               1                          2 
--------------|--------------------------|------------------------| 
--------------|--------------------------|------------------------| 
--------------|-------------------------*|-----------------------*| 
--------------|-------------------------*|-----------------------*| 
--5-7-8-7-5-4-|----1h2---1h2-----1h2---3-|----1h2---7-----1h2---3-| 
--------------|000-1h2-0-1h2-000-1h2-0-3-|000-1h2-0-7-000-1h2-0-3-| 
  
3 
--------------------------|| 
--------------------------|| 
-------------------------*|| 
-------------------------*|| 
-----1h2---5-----1h2---3--|| 
-000-1h2-0-5-000-1h2-0-3--|| 

||---------------------------------------------------------------------------------|| 
||---------------------------------------------------------------------------------|| 
||*-------------------------------------------------------------------------------*|| 
||*--------------------------------------------------------------------------3----*|| 
||---------------------------------------------------------------------------1-2-5-|| 
||-222-2-22-/7-/15^-15^--222-2-22-/8-/15^-15^--333-3-33-/9-/17^-17^--111-1-1---2-5-|| 

||-------------------------------------------------------------- 
||-------------------------------------------------------------- 
||*------------------------------------------------------------- 
||*------------------------------------------------------------- 
||-----1h2---1h2-5-7-8-7-5-4-----1h2---1h2--5-4-6-----1h2---1h2- 
||-000-1h2-0-1h2-------------000-1h2-0-1h2--------000-1h2-0-1h2- 

               1,4                        2 
--------------|--------------------------|------------------------| 
--------------|--------------------------|------------------------| 
--------------|-------------------------*|-----------------------*| 
--------------|-------------------------*|-----------------------*| 
--5-7-8-7-5-4-|----1h2---1h2-----1h2---3-|----1h2---7-----1h2---3-| 
--------------|000-1h2-0-1h2-000-1h2-0-3-|000-1h2-0-7-000-1h2-0-3-| 
  
 3 
--------------------------|-----------------|| 
--------------------------|-----------------|| 
-------------------------*|-----------------|| 
-------------------------*|-----------------|| 
-----1h2---5-----1h2---3--|-6-3-5-/7-6-3-0--|| 
-000-1h2-0-5-000-1h2-0-3--|-6-3-5-/7-6-3-0--|| 



E||-------------------|------------------|--------------------------------------| 
B||-------------------|------------------|--------12--11------------------------| 
G||-------------------|------------------|*-------------------------------------| 
D||--0----------------|------------------|*---------------13--12h13p12----------| 
A||--0----------------|------------------|--------------------------------------| 
D||--0----------------|------------------|--------------------------------------| 

|--------------------------------------------------------|------| 
|----------------------12-11-----------------------------|------| 
|--------------------------------------------------------|-----*| 
|----------------------------13-12h13p-------------------|-----*| 
|-------------------------------------------17-----------|------| 
|--13-12-13-12-10-0---------------------12-----13-12-10r-|-0----| 

  

----------------------------------------------|--------------------------------------------| 
-----------12--11-----------------------------|--------------------------------------------| 
*---------------------------------------------|--------------------------------------------| 
*------------------13--12-13-12---------------|--------------------------------------------| 
----------------------------------------------|------------------------------17------------| 
-0--0-0-0------------------------0--0--0-0-0--|-0--0--0--0--0-0-0--0--12-13-----13--12--10-| 

                                               1.                                    

----------------------------------------------|-------------------------------------------| 
-----------12--11-----------------------------|-------------------------------------------| 
----------------------------------------------|------------------------------------------*| 
-------------------13--12-13-12---------------|------------------------------------------*| 
----------------------------------------------|-------------------------17----------------| 
-0--0-0-0------------------------0--0--0-0-0--|--0--0--0--0--0-0-0--12------13--12--10r---| 

2.                            
------------------------------||----------------| 
------------------------------||----------------| 
-----------------------------*||----------------| 
---------------8--8------5-5-*||----------------| 
------------0--6--6---0--3-3--||----------1-0---| 
-0--0--0-0--0---------0-------||--0-00-0------3-| 

                                             4x 
||-------------------------------------------|| 
||-----------3-------------------------------|| 
||*------6----------------------------------*|| 
||*-----------------------------------------*|| 
||-0------------6--3-3---0-1-1---------1-0---|| 
||-0------------6--3-3---0-1-1--0-00-0-----3-|| 

----------------------------------------------|--------------------------------------------| 
-----------12--11-----------------------------|--------------------------------------------| 
*---------------------------------------------|--------------------------------------------| 
*------------------13--12-13-12---------------|--------------------------------------------| 
----------------------------------------------|------------------------------17------------| 
-0--0-0-0------------------------0--0--0-0-0--|-0--0--0--0--0-0-0--0--12-13-----13--12--10-| 

                                               1.                                    

----------------------------------------------|-------------------------------------------| 
-----------12--11-----------------------------|-------------------------------------------| 
----------------------------------------------|------------------------------------------*| 
-------------------13--12-13-12---------------|------------------------------------------*| 
----------------------------------------------|-------------------------17----------------| 
-0--0-0-0------------------------0--0--0-0-0--|--0--0--0--0--0-0-0--12------13--12--10r---| 

2.                            
------------------------------||----------------| 
------------------------------||----------------| 
-----------------------------*||----------------| 
---------------8--8------5-5-*||----------------| 
------------0--6--6---0--3-3--||----------1-0---| 
-0--0--0-0--0---------0-------||--0-00-0------3-| 


                                             4x 
||-------------------------------------------|| 
||-----------3-------------------------------|| 
||*------6----------------------------------*|| 
||*-----------------------------------------*|| 
||-0------------6--3-3---0-1-1---------1-0---|| 
||-0------------6--3-3---0-1-1--0-00-0-----3-|| 

                        3x 
||----------------------||----------------------------------------------| 
||----------------------||----------------------------------------------| 
||*--------------------*||-10-9-----------------------------------------| 
||*--------------------*||------11-11h12p11-8---------------------------| 
||---1-1---------1-0----||---------------------10-9-6----------0-----0--| 
||-0-1-1--0-00-0-----3--||-----------------------------4h5p4-1-0-----0--|

-----------------------
Remorse Is For The Dead
-----------------------
     Tempo 127                                   
     E         E  E  E  E  E  E  E  E  E  E  E   
E||---------------------------------------------|
B||---------------------------------------------|
G||---------------------------------------------|
D||---------------7-----7-----------7-----7-----|
A||------------5-----5-----5-----5-----5-----5--|
D||--0------------------------7-----------------|


  E  E  E  E  E  E  E  E  E  E  E  E     E  E  E  E  E  E  E  E  E  E  E  E   
--------------------------------------|--------------------------------------|
--------------------------------------|--------------------------------------|
--------------------------------------|--------------------------------------|
--------8-----8-----------7-----5-----|--------7-----7-----------5-----5-----|
-----5-----5-----5-----5-----5-----5--|-----5-----5-----5-----5-----5-----5--|
--8-----------------5-----------------|--7--------------0--3-----------------|


  E  E  E  E  E  E  E  E  E  E  E  E     E  E  E  E  E  E  E  E  E  E  E  E   
--------------------------------------|--------------------------------------|
--------------------------------------|--------------------------------------|
--------------------------2-----0-----|--------------------------------------|
--------7-----7--8-----0-----0-----0--|--------7-----7-----------7-----7-----|
-----5-----5--------------------------|-----5-----5-----5-----5-----5-----5--|
--5-----------------1-----------------|--0-----------------7-----------------|


  E  E  E  E  E  E  E  E  E  E  E  E     E  E  E  E  E  E  E  E  E  E  E  E   
--------------------------------------|--------------------------------------|
--------------------------------------|--------------------------------------|
--------------------------------------|--------------------------------------|
--------8-----8-----------7-----5-----|--------7-----7-----------5-----5-----|
-----5-----5-----5-----5-----5-----5--|-----5-----5-----5-----5-----5-----5--|
--8-----------------5-----------------|--7--------------0--3-----------------|


  E  E  E  E  E  E  E  E  E  E  E  E     E  E  E  E  E  E  E  E  E  E  E  E   
--------------------------------------|--------------------------------------|
--------------------------------------|--------------------------------------|
--------------------------2-----0-----|--------------------------------------|
--------7-----7--8-----0-----0-----0--|--------7-----7-----------7-----7-----|
-----5-----5--------------------------|-----5-----5-----5-----5-----5-----5--|
--5-----------------1-----------------|--0-----------------7-----------------|


  E  E  E  E  E  E  E  E  E  E  E  E     E  E  E  E  E  E  E  E  E  E  E  E   
--------------------------------------|--------------------------------------|
--------------------------------------|--------------------------------------|
--------------------------------------|--------------------------------------|
--------8-----8-----------7-----5-----|--------7-----7-----------5-----5-----|
-----5-----5-----5-----5-----5-----5--|-----5-----5-----5-----5-----5-----5--|
--8-----------------5-----------------|--7--------------0--3-----------------|


  E  E  E  E  E  E  E  E  E  E  E  E     E  E  E  E  E  E  E  E  E  E  E  E   
--------------------------------------|--------------------------------------|
--------------------------------------|--------------------------------------|
--------------------------2-----0-----|--------------------------------------|
--------7-----7--8-----0-----0-----0--|--------7-----7-----------7-----7-----|
-----5-----5--------------------------|-----5-----5-----5-----5-----5-----5--|
--5-----------------1-----------------|--0-----------------7-----------------|


  E  E  E  E  E  E  E  E  E  E  E  E     E  E  E  E  E  E  E  E  E  E  E  E   
--------------------------------------|--------------------------------------|
--------------------------------------|--------------------------------------|
--------------------------------------|--------------------------------------|
--------8-----8-----------7-----5-----|--------7-----7-----------5-----5-----|
-----5-----5-----5-----5-----5-----5--|-----5-----5-----5-----5-----5-----5--|
--8-----------------5-----------------|--7--------------0--3-----------------|


  E  E  E  E  E  E  E  E  E  E  E  E     E  E  E  E  E  E  E  E  E  E  E  E   
--------------------------------------|--------------------------------------|
--------------------------------------|--------------------------------------|
--------------------------2-----0-----|--------------------------------------|
--------7-----7--8-----0-----0-----0--|--------7-----7-----------7-----7-----|
-----5-----5--------------------------|-----5-----5-----5-----5-----5-----5--|
--5-----------------1-----------------|--0-----------------7-----------------|


  E  E  E  E  E  E  E  E  E  E  E  E     E  E  E  E  E  E  E  E  E  E  E  E   
--------------------------------------|--------------------------------------|
--------------------------------------|--------------------------------------|
--------------------------------------|--------------------------------------|
--------8-----8-----------7-----5-----|--------7-----7-----------5-----5-----|
-----5-----5-----5-----5-----5-----5--|-----5-----5-----5-----5-----5-----5--|
--8-----------------5-----------------|--7--------------0--3-----------------|


  E  E  E  E  E  E  E  E  E  E  E  E     E  E  E  E  E  E  E  E  E  E  E  E   
--------------------------------------|--------------------------------------|
--------------------------------------|--------------------------------------|
--------------------------2-----0-----|--------------------------------------|
--------7-----7--8-----0-----0-----0--|--------7-----7-----------7-----7-----|
-----5-----5--------------------------|-----5-----5-----5-----5-----5-----5--|
--5-----------------1-----------------|--0-----------------7-----------------|


  E  E  E  E  E  E  E  E  E  E  E  E     E  E  E  E  E  E  E  E  E  E  E  E   
--------------------------------------|--------------------------------------|
--------------------------------------|--------------------------------------|
--------------------------------------|--------------------------------------|
--------8-----8-----------7-----5-----|--------7-----7-----------5-----5-----|
-----5-----5-----5-----5-----5-----5--|-----5-----5-----5-----5-----5-----5--|
--8-----------------5-----------------|--7--------------0--3-----------------|


  E  E  E  E  E  E  E  E  E  E  E  E     E  E  E  E  E  E  E  E  E  E  E  E   
--------------------------------------|--------------------------------------|
--------------------------------------|--------------------------------------|
--------------------------2-----0-----|--------2-----0-----------2-----0-----|
--------7-----7--8-----0-----0-----0--|-----0-----0-----0-----0-----0-----0--|
-----5-----5--------------------------|--------------------------------------|
--5-----------------1-----------------|--1-----------------1-----------------|


  E  E  E  E  E  E  E  E  E  E  E  E     W.                
--------------------------------------|-------------------|
--------------------------------------|-------------------|
--------2-----0-----------2-----0--L--|--L----------------|
-----0-----0-----0-----0-----0--------|-------------------|
--------------------------------------|-------------------|
--1-----------------1-----------------|-------------------|


  Tempo 155                                               
  PM        PM PM PM              PM PM PM PM PM   PM PM  
  E         E  E  E  E  E  E   E  S  S  S  S  S  S S  S   
---------------------------------------------------------|
---------------------------------------------------------|
---------------------------------------------------------|
---------------------------------------------------------|
--0---------0--0--0--3--0--3S--6--0--0--0--0--0----0--0--|
--0---------0--0--0--3--0--3S--6--0--0--0--0--0----0--0--|



    PM PM   PM PM PM PM PM PM PM PM PM PM PM PM              
  S S  S  S S  S  S  S  S  S  S  S  S  S  S  S  E  E  E  E   
------------------------------------------------------------|
------------------------------------------------------------|
------------------------------------------------------------|
------------------------------------------------------------|
----0--0----0--0--0--0--0--0--0--0--0--0--0--0--3--0--3--6--|
----0--0----0--0--0--0--0--0--0--0--0--0--0--0--3--0--3--6--|


                             PM PM PM PM              PM PM PM PM PM   PM PM  
  E  E  E  E  E  E  E  E     E  E  E  E  E  E  E   E  S  S  S  S  S  S S  S   
--------------------------|--------------------------------------------------|
--------------------------|--------------------------------------------------|
--------------------------|--------------------------------------------------|
--------------------------|--------------------------------------------------|
--0--3--2--0--2--1--0--1--|--0--0--0--0--3--0--3S--6--0--0--0--0--0----0--0--|
--0--3--2--0--2--1--0--1--|--0--0--0--0--3--0--3S--6--0--0--0--0--0----0--0--|


    PM PM   PM PM PM PM PM PM PM PM PM PM PM PM              
  S S  S  S S  S  S  S  S  S  S  S  S  S  S  S  E  E  E  E   
------------------------------------------------------------|
------------------------------------------------------------|
------------------------------------------------------------|
------------------------------------------------------------|
----0--0----0--0--0--0--0--0--0--0--0--0--0--0--3--0--3--6--|
----0--0----0--0--0--0--0--0--0--0--0--0--0--0--3--0--3--6--|


                             PM PM PM PM              PM PM PM PM PM   PM PM  
  E  E  E  E  E  E  E  E     E  E  E  E  E  E  E   E  S  S  S  S  S  S S  S   
--------------------------|--------------------------------------------------|
--------------------------|--------------------------------------------------|
--------------------------|--------------------------------------------------|
--------------------------|--------------------------------------------------|
--0--3--2--0--2--1--0--1--|--0--0--0--0--3--0--3S--6--0--0--0--0--0----0--0--|
--0--3--2--0--2--1--0--1--|--0--0--0--0--3--0--3S--6--0--0--0--0--0----0--0--|


    PM PM   PM PM PM PM PM PM PM PM PM PM PM PM              
  S S  S  S S  S  S  S  S  S  S  S  S  S  S  S  E  E  E  E   
------------------------------------------------------------|
------------------------------------------------------------|
------------------------------------------------------------|
------------------------------------------------------------|
----0--0----0--0--0--0--0--0--0--0--0--0--0--0--3--0--3--6--|
----0--0----0--0--0--0--0--0--0--0--0--0--0--0--3--0--3--6--|


                             PM PM PM PM              PM PM PM PM PM   PM PM  
  E  E  E  E  E  E  E  E     E  E  E  E  E  E  E   E  S  S  S  S  S  S S  S   
--------------------------|--------------------------------------------------|
--------------------------|--------------------------------------------------|
--------------------------|--------------------------------------------------|
--------------------------|--------------------------------------------------|
--0--3--2--0--2--1--0--1--|--0--0--0--0--3--0--3S--6--0--0--0--0--0----0--0--|
--0--3--2--0--2--1--0--1--|--0--0--0--0--3--0--3S--6--0--0--0--0--0----0--0--|


    PM PM   PM PM PM PM PM PM PM PM PM PM PM PM              
  S S  S  S S  S  S  S  S  S  S  S  S  S  S  S  E  E  E  E   
------------------------------------------------------------|
------------------------------------------------------------|
------------------------------------------------------------|
------------------------------------------------------------|
----0--0----0--0--0--0--0--0--0--0--0--0--0--0--3--0--3--6--|
----0--0----0--0--0--0--0--0--0--0--0--0--0--0--3--0--3--6--|


                                PM PM PM    PM PM PM  
  E  E  E  E  E  E  E  E     E  E  E  E  E  E  E  E   
--------------------------|--------------------------|
--------------------------|--------------------------|
--------------------------|--------------------------|
--------------------------|--3-----------5-----------|
--0--3--2--0--2--1--0--1--|--1--2--1--2--3--3--1--3--|
--0--3--2--0--2--1--0--1--|-----2--1--2-----3--1--3--|


  Tempo 180                                                  
  E         E  E  E  E  E  E  E     E  E  E  E  E  E  E  E   
---------------------------------|--------------------------|
---------------------------------|--------------------------|
---------------------------------|--------------------------|
---------------------------------|--------------------------|
---------------------------------|--------------------------|
--6---------0--0--6--0--0--6--0--|--7--0--0--7--0--0--3--6--|


  E  E  E  E  S S E  E  S S    E  E  S S E  E  S S E  E   
----------------------------|----------------------------|
----------------------------|----------------------------|
----------------------------|----------------------------|
----------------------------|----------------------------|
----------------------------|----------------------------|
--7--6--0--0--0-0-0--0--0-0-|--0--0--0-0-0--0--0-0-0--0--|


  E  E  E  E  E  E  E  E     E  E  E  E  E  E  E  E   
--------------------------|--------------------------|
--------------------------|--------------------------|
--------------------------|--------------------------|
--------------------------|--------------------------|
--------------------------|--------------------0--3--|
--6--0--0--6--0--0--6--0--|--7--0--0--7--0--0--------|


                                PM PM PM PM PM PM PM  
  E  E  E  E  E  E  E  E     E  E  E  E  E  E  E  E   
--------------------------|--------------------------|
--------------------------|--------------------------|
--------------------------|--------------------------|
--------------------------|--------------------------|
--2--------2--------2-----|--1-----------------------|
-----3--3-----3--3-----3--|-----3--2--1--0--1--2--3--|


  E  E  E  E  E  E  E  E     E  E  E  E  E  E  E  E   
--------------------------|--------------------------|
--------------------------|--------------------------|
--------------------------|--------------------------|
--------------------------|--------------------------|
--------------------------|--------------------------|
--6--0--0--6--0--0--6--0--|--7--0--0--7--0--0--3--6--|


  E  E  E  E  S S E  E  S S    E  E  S S E  E  S S E  E   
----------------------------|----------------------------|
----------------------------|----------------------------|
----------------------------|----------------------------|
----------------------------|----------------------------|
----------------------------|----------------------------|
--7--6--0--0--0-0-0--0--0-0-|--0--0--0-0-0--0--0-0-0--0--|


  E  E  E  E  E  E  E  E     E  E  E  E  E  E  E  E   
--------------------------|--------------------------|
--------------------------|--------------------------|
--------------------------|--------------------------|
--------------------------|--------------------------|
--------------------------|--------------------0--3--|
--6--0--0--6--0--0--6--0--|--7--0--0--7--0--0--------|


                                PM PM PM PM PM PM PM  
  E  E  E  E  E  E  E  E     E  E  E  E  E  E  E  E   
--------------------------|--------------------------|
--------------------------|--------------------------|
--------------------------|--------------------------|
--------------------------|--------------------------|
--2--------2--------2-----|--1-----------------------|
-----3--3-----3--3-----3--|-----3--2--1--0--1--2--3--|


  E  E  E  E  E  E  E  E     E  E  E  E  E  E  E  E   
--------------------------|--------------------------|
--------------------------|--------------------------|
--------------------------|--------------------------|
--------------------------|--------------------------|
--6--0--0--6--0--0--6--0--|--7--0--0--7--0--0--3--6--|
--6--0--0--6--0--0--6--0--|--7--0--0--7--0--0--3--6--|


  E  E  E  E  S S E  E  S S    E  E  S S E  E  S S E  E   
----------------------------|----------------------------|
----------------------------|----------------------------|
----------------------------|----------------------------|
----------------------------|----------------------------|
--7--6--0--0--0-0-0--0--0-0-|--0--0--0-0-0--0--0-0-0--0--|
--7--6--0--0--0-0-0--0--0-0-|--0--0--0-0-0--0--0-0-0--0--|


  E  E  E  E  E  E  E  E     E  E  E  E  E  E  E  E   
--------------------------|--------------------------|
--------------------------|--------------------------|
--------------------------|--------------------------|
--------------------------|--------------------2--5--|
--6--0--0--6--0--0--6--0--|--7--0--0--7--0--0--0--3--|
--6--0--0--6--0--0--6--0--|--7--0--0--7--0--0--------|


                                PM PM PM PM PM PM PM  
  E  E  E  E  E  E  E  E     E  E  E  E  E  E  E  E   
--------------------------|--------------------------|
--------------------------|--------------------------|
--------------------------|--------------------------|
--4--------4--------4-----|--3-----------------------|
--2--3--3--2--3--3--2--3--|--1--3--2--1--0--1--2--3--|
-----3--3-----3--3-----3--|-----3--2--1--0--1--2--3--|


  S S S S E  E  E  E  S S S S    E  E  E  E  S S S S S S S S  
------------------------------|------------------------------|
------------------------------|------------------------------|
------------------------------|------------------------------|
------------------------------|------------------------------|
------------------------------|------------------------------|
--2-2-2-2-2--2--2--2--2-2-2-2-|--2--2--2--2--2-2-2-2-2-2-2-2-|


  S S S S E  E  E  E  S S S S    E  E  E  E  S S S S S S S S  
------------------------------|------------------------------|
------------------------------|------------------------------|
------------------------------|------------------------------|
------------------------------|------------------------------|
------------------------------|------------------------------|
--2-2-2-2-2--2--2--2--2-2-2-2-|--2--2--2--2--2-2-2-2-2-2-2-2-|


  S S S S E  E  E  E  S S S S    E  E  E  E  S S S S S S S S  
------------------------------|------------------------------|
------------------------------|------------------------------|
------------------------------|------------------------------|
------------------------------|------------------------------|
------------------------------|------------------------------|
--2-2-2-2-2--2--2--2--2-2-2-2-|--2--2--2--2--2-2-2-2-2-2-2-2-|


  S S S S E  E  E  E  S S S S    S S S S E  E  E  Q.      
------------------------------|--------------------------|
------------------------------|--------------------------|
------------------------------|--------------------------|
------------------------------|--------------------------|
------------------------------|-------------------3------|
--2-2-2-2-2--2--2--2--2-2-2-2-|--2-2-2-2-2--2--2--3------|


  S S E  E  E  S S E  S S E     E  E  E  E  S S E  E  E   
-----------------------------|---------------------------|
-----------------------------|---------------------------|
-----------------------------|---------------------------|
-----------------------------|---------------------------|
-----------------------------|---------------------------|
--3-6-3--2--2--2-2-2--3-6-3--|--2--2--2--2--2-2-2--2--2--|


  S S E  E  E  S S E  S S E     E  E  E  E  E  Q.      
-----------------------------|------------------------|
-----------------------------|------------------------|
-----------------------------|------------------------|
-----------------------------|------------------------|
-----------------------------|--------------2--3------|
--3-6-3--2--2--2-2-2--3-6-3--|--2--2--2--2--2--3------|


  S S E  E  E  S S E  S S E     E  E  E  E  S S E  E  E   
-----------------------------|---------------------------|
-----------------------------|---------------------------|
-----------------------------|---------------------------|
-----------------------------|---------------------------|
-----------------------------|---------------------------|
--3-6-3--2--2--2-2-2--3-6-3--|--2--2--2--2--2-2-2--2--2--|


  S S E  E  E  S S E  S S E     E  E  E  E  S S Q.      
-----------------------------|-------------------------|
-----------------------------|-------------------------|
-----------------------------|-------------------------|
-----------------------------|-------------------------|
-----------------------------|------------------3------|
--3-6-3--2--2--2-2-2--3-6-3--|--2--2--2--2--2-2-3------|


  E  E  E  E  E  E  E  E     E  E  E  E  E  E  E  E   
--------------------------|--------------------------|
--------------------------|--------------------------|
--------------------------|--------------------------|
--------------------------|--------------------------|
--------------------------|--------------------------|
--------------------------|--------------------3--6--|


  E  E  E  E  S S E  E  S S    E  E  S S E  E  S S E  E   
----------------------------|----------------------------|
----------------------------|----------------------------|
----------------------------|----------------------------|
----------------------------|----------------------------|
----------------------------|----------------------------|
--7--6--0--0--0-0-0--0--0-0-|--0--0--0-0-0--0--0-0-0--0--|


  E  E  E  E  E  E  E  E     E  E  E  E  E  E  E  E   
--------------------------|--------------------------|
--------------------------|--------------------------|
--------------------------|--------------------------|
--------------------------|--------------------------|
--------------------------|--------------------0--3--|
--6--0--0--6--0--0--6--0--|--7--0--0--7--0--0--------|


                                PM PM PM PM PM PM PM  
  E  E  E  E  E  E  E  E     E  E  E  E  E  E  E  E   
--------------------------|--------------------------|
--------------------------|--------------------------|
--------------------------|--------------------------|
--------------------------|--------------------------|
--2--------2--------2-----|--1-----------------------|
-----3--3-----3--3-----3--|-----3--2--1--0--1--2--3--|


  E  E  E  E  E  E  E  E     E  E  E  E  E  E  E  E   
--------------------------|--------------------------|
--------------------------|--------------------------|
--------------------------|--------------------------|
--------------------------|--------------------------|
--------------------------|--------------------------|
--6--0--0--6--0--0--6--0--|--7--0--0--7--0--0--3--6--|


  E  E  E  E  S S E  E  S S    E  E  S S E  E  S S E  E   
----------------------------|----------------------------|
----------------------------|----------------------------|
----------------------------|----------------------------|
----------------------------|----------------------------|
----------------------------|----------------------------|
--7--6--0--0--0-0-0--0--0-0-|--0--0--0-0-0--0--0-0-0--0--|


  E  E  E  E  E  E  E  E     E  E  E  E  E  E  E  E   
--------------------------|--------------------------|
--------------------------|--------------------------|
--------------------------|--------------------------|
--------------------------|--------------------------|
--------------------------|--------------------0--3--|
--6--0--0--6--0--0--6--0--|--7--0--0--7--0--0--------|


                                PM PM PM PM PM PM PM  
  E  E  E  E  E  E  E  E     E  E  E  E  E  E  E  E   
--------------------------|--------------------------|
--------------------------|--------------------------|
--------------------------|--------------------------|
--------------------------|--------------------------|
--2--------2--------2-----|--1-----------------------|
-----3--3-----3--3-----3--|-----3--2--1--0--1--2--3--|


  S S S S E  E  E  E  S S S S    E  E  E  E  S S S S S S S S  
------------------------------|------------------------------|
------------------------------|------------------------------|
------------------------------|------------------------------|
------------------------------|------------------------------|
------------------------------|------------------------------|
--2-2-2-2-2--2--2--2--2-2-2-2-|--2--2--2--2--2-2-2-2-2-2-2-2-|


  S S S S E  E  E  E  S S S S    E  E  E  E  S S S S S S S S  
------------------------------|------------------------------|
------------------------------|------------------------------|
------------------------------|------------------------------|
------------------------------|------------------------------|
------------------------------|------------------------------|
--2-2-2-2-2--2--2--2--2-2-2-2-|--2--2--2--2--2-2-2-2-2-2-2-2-|


  S S S S E  E  E  E  S S S S    E  E  E  E  S S S S S S S S  
------------------------------|------------------------------|
------------------------------|------------------------------|
------------------------------|------------------------------|
------------------------------|------------------------------|
------------------------------|------------------------------|
--2-2-2-2-2--2--2--2--2-2-2-2-|--2--2--2--2--2-2-2-2-2-2-2-2-|


  S S S S E  E  E  E  S S S S    E  E  E  E  E  Q.      
------------------------------|------------------------|
------------------------------|------------------------|
------------------------------|------------------------|
------------------------------|------------------------|
------------------------------|--------------2--3------|
--2-2-2-2-2--2--2--2--2-2-2-2-|--2--2--2--2--2--3------|


  S S E  E  E  S S E  S S E     E  E  E  E  S S E  E  E   
-----------------------------|---------------------------|
-----------------------------|---------------------------|
-----------------------------|---------------------------|
-----------------------------|---------------------------|
-----------------------------|---------------------------|
--3-6-3--2--2--2-2-2--3-6-3--|--2--2--2--2--2-2-2--2--2--|


  S S E  E  E  S S E  S S E     E  E  E  E  S S Q.      
-----------------------------|-------------------------|
-----------------------------|-------------------------|
-----------------------------|-------------------------|
-----------------------------|-------------------------|
-----------------------------|------------------3------|
--3-6-3--2--2--2-2-2--3-6-3--|--2--2--2--2--2-2-3------|


  S S E  E  E  S S E  S S E     E  E  E  E  S S E  E  E   
-----------------------------|---------------------------|
-----------------------------|---------------------------|
-----------------------------|---------------------------|
-----------------------------|---------------------------|
-----------------------------|---------------------------|
--3-6-3--2--2--2-2-2--3-6-3--|--2--2--2--2--2-2-2--2--2--|


                                                PM                           
  S S E  E  E  S S E  S S E     E  E  E  E  S S E  Q       W                 
-----------------------------|--------------------------|-------------------|
-----------------------------|--------------------------|-------------------|
-----------------------------|--------------------------|-------------------|
-----------------------------|--------------------------|-------------------|
-----------------------------|------------------0--0----|--L----------------|
--3-6-3--2--2--2-2-2--3-6-3--|--2--2--2--2--2-2-0--0----|--L----------------|


                            Tempo 131                            
   \6        \6                                                  
   H         E  E  E  E     E         S S S S E  E  S S S S S S  
-------------------------|--------------------------------------|
-------------------------|--------------------------------------|
-------------------------|--------------------------------------|
-------------------------|--------------------------------------|
--(0)--------L--L--L--L--|--0---------0-0-0-0-1--0--0-0-0-0-0-0-|
--(0)--------L--L--L--L--|--0---------0-0-0-0-1--0--0-0-0-0-0-0-|


  S S E  S S E  E  S S S S E     E  S S S S E  E  S S S S S S  
------------------------------|-------------------------------|
------------------------------|-------------------------------|
------------------------------|-------------------------------|
------------------------------|-------------------------------|
--L-0-0--0-0-1--0--0-0-0-0----|--0--0-0-0-0-1--0--0-0-0-0-0-0-|
--L-0-0--0-0-1--0--0-0-0-0----|--0--0-0-0-0-1--0--0-0-0-0-0-0-|


  S S E  S S E  E  S S S S E     E  S S S S E  E  S S S S S S  
------------------------------|-------------------------------|
------------------------------|-------------------------------|
------------------------------|-------------------------------|
------------------------------|-------------------------------|
--L-0-0--0-0-1--0--0-0-0-0----|--0--0-0-0-0-1--0--0-0-0-0-0-0-|
--L-0-0--0-0-1--0--0-0-0-0----|--0--0-0-0-0-1--0--0-0-0-0-0-0-|


  S S E  S S E  E  S S S S E     E  S S S S E  E  S S S S S S  
------------------------------|-------------------------------|
------------------------------|-------------------------------|
------------------------------|-------------------------------|
------------------------------|-------------------------------|
--L-0-0--0-0-1--0--0-0-0-0----|--0--0-0-0-0-1--0--0-0-0-0-0-0-|
--L-0-0--0-0-1--0--0-0-0-0----|--0--0-0-0-0-1--0--0-0-0-0-0-0-|


  S S E  S S E  E  S S S S E     E  S S S S E  E  S S S S S S  
------------------------------|-------------------------------|
------------------------------|-------------------------------|
------------------------------|-------------------------------|
------------------------------|-------------------------------|
--L-0-0--0-0-1--0--0-0-0-0----|--0--0-0-0-0-1--0--0-0-0-0-0-0-|
--L-0-0--0-0-1--0--0-0-0-0----|--0--0-0-0-0-1--0--0-0-0-0-0-0-|


  S S E  S S E  E  S S S S E     E  S S S S E  E  S S S S S S  
------------------------------|-------------------------------|
------------------------------|-------------------------------|
------------------------------|-------------------------------|
------------------------------|-------------------------------|
--L-0-0--0-0-1--0--0-0-0-0----|--0--0-0-0-0-1--0--0-0-0-0-0-0-|
--L-0-0--0-0-1--0--0-0-0-0----|--0--0-0-0-0-1--0--0-0-0-0-0-0-|


  S S E  S S E  E  S S S S E     E  S S S S E  E  S S S S S S  
------------------------------|-------------------------------|
------------------------------|-------------------------------|
------------------------------|-------------------------------|
------------------------------|-------------------------------|
--L-0-0--0-0-1--0--0-0-0-0----|--0--0-0-0-0-1--0--0-0-0-0-0-0-|
--L-0-0--0-0-1--0--0-0-0-0----|--0--0-0-0-0-1--0--0-0-0-0-0-0-|


  S S E  S S E  E  S S S S E     E  S S S S E  E  S S S S S S  
------------------------------|-------------------------------|
------------------------------|-------------------------------|
------------------------------|-------------------------------|
------------------------------|-------------------------------|
--L-0-0--0-0-1--0--0-0-0-0----|--0--0-0-0-0-1--0--0-0-0-0-0-0-|
--L-0-0--0-0-1--0--0-0-0-0----|--0--0-0-0-0-1--0--0-0-0-0-0-0-|


  S S E  S S E  E  S S S S E     E  S S S S E  E  S S S S S S  
------------------------------|-------------------------------|
------------------------------|-------------------------------|
------------------------------|-------------------------------|
------------------------------|-------------------------------|
--L-0-0--0-0-1--0--0-0-0-0----|--0--0-0-0-0-1--0--0-0-0-0-0-0-|
--L-0-0--0-0-1--0--0-0-0-0----|--0--0-0-0-0-1--0--0-0-0-0-0-0-|


  S S E  S S E  E  S S S S E     E  S S S S E  E  S S S S S S  
------------------------------|-------------------------------|
------------------------------|-------------------------------|
------------------------------|-------------------------------|
------------------------------|-------------------------------|
--L-0-0--0-0-1--0--0-0-0-0----|--0--0-0-0-0-1--0--0-0-0-0-0-0-|
--L-0-0--0-0-1--0--0-0-0-0----|--0--0-0-0-0-1--0--0-0-0-0-0-0-|


  S S E  S S E  E  S S S S E     E  S S S S E  E  S S S S S S  
------------------------------|-------------------------------|
------------------------------|-------------------------------|
------------------------------|-------------------------------|
------------------------------|-------------------------------|
--L-0-0--0-0-1--0--0-0-0-0----|--0--0-0-0-0-1--0--0-0-0-0-0-0-|
--L-0-0--0-0-1--0--0-0-0-0----|--0--0-0-0-0-1--0--0-0-0-0-0-0-|


  S S E  S S E  E  S S S S E     E  S S S S E  E  S S S S S S  
------------------------------|-------------------------------|
------------------------------|-------------------------------|
------------------------------|-------------------------------|
------------------------------|-------------------------------|
--L-0-0--0-0-1--0--0-0-0-0----|--0--0-0-0-0-1--0--0-0-0-0-0-0-|
--L-0-0--0-0-1--0--0-0-0-0----|--0--0-0-0-0-1--0--0-0-0-0-0-0-|


                                                   PM    
  S S E  S S E  E  S S S S S S    S S S S H        Q     
-------------------------------|------------------------|
-------------------------------|------------------------|
-------------------------------|------------------------|
-------------------------------|------------------------|
--L-0-0--0-0-1--0--0-0-0-0-0-0-|----0-0---1--------0----|
--L-0-0--0-0-1--0--0-0-0-0-0-0-|----0-0---1--------0----|


  PM         PM                                           
  Q    E  E  E  E  E  E     E  S S S S E  E  S S S S S S  
-------------------------|-------------------------------|
-------------------------|-------------------------------|
-------------------------|-------------------------------|
-------7--6-----6--5-----|-------------------------------|
--0----8--7--0--7--6-----|--0--0-0-0-0-1--0--0-0-0-0-0-0-|
--0----------0-----------|--0--0-0-0-0-1--0--0-0-0-0-0-0-|


                                                   PM    
  S S E  S S E  E  S S S S S S    S S S S H        Q     
-------------------------------|------------------------|
-------------------------------|------------------------|
-------------------------------|------------------------|
-------------------------------|------------------------|
--L-0-0--0-0-1--0--0-0-0-0-0-0-|----0-0---1--------0----|
--L-0-0--0-0-1--0--0-0-0-0-0-0-|----0-0---1--------0----|


  PM         PM                                           
  Q    E  E  E  E  E  E     E  S S S S E  E  S S S S S S  
-------------------------|-------------------------------|
-------------------------|-------------------------------|
-------------------------|-------------------------------|
-------7--6-----6--5-----|-------------------------------|
--0----8--7--0--7--6-----|--0--0-0-0-0-1--0--0-0-0-0-0-0-|
--0----------0-----------|--0--0-0-0-0-1--0--0-0-0-0-0-0-|


                                                   PM    
  S S E  S S E  E  S S S S S S    S S S S H        Q     
-------------------------------|------------------------|
-------------------------------|------------------------|
-------------------------------|------------------------|
-------------------------------|------------------------|
--L-0-0--0-0-1--0--0-0-0-0-0-0-|----0-0---1--------0----|
--L-0-0--0-0-1--0--0-0-0-0-0-0-|----0-0---1--------0----|


  PM         PM                                           
  Q    E  E  E  E  E  E     E  S S S S E  E  S S S S S S  
-------------------------|-------------------------------|
-------------------------|-------------------------------|
-------------------------|-------------------------------|
-------7--6-----6--5-----|-------------------------------|
--0----8--7--0--7--6-----|--0--0-0-0-0-1--0--0-0-0-0-0-0-|
--0----------0-----------|--0--0-0-0-0-1--0--0-0-0-0-0-0-|


                                                   PM    
  S S E  S S E  E  S S S S S S    S S S S H        Q     
-------------------------------|------------------------|
-------------------------------|------------------------|
-------------------------------|------------------------|
-------------------------------|------------------------|
--L-0-0--0-0-1--0--0-0-0-0-0-0-|----0-0---1--------0----|
--L-0-0--0-0-1--0--0-0-0-0-0-0-|----0-0---1--------0----|


  PM         PM                                           
  Q    E  E  E  E  E  E     E  S S S S E  E  S S S S S S  
-------------------------|-------------------------------|
-------------------------|-------------------------------|
-------------------------|-------------------------------|
-------7--6-----6--5-----|-------------------------------|
--0----8--7--0--7--6-----|--0--0-0-0-0-1--0--0-0-0-0-0-0-|
--0----------0-----------|--0--0-0-0-0-1--0--0-0-0-0-0-0-|


  S S E  S S E  E  S S S S E     E  S S S S E  E  S S S S S S  
------------------------------|-------------------------------|
------------------------------|-------------------------------|
------------------------------|-------------------------------|
------------------------------|-------------------------------|
--L-0-0--0-0-1--0--0-0-0-0----|--0--0-0-0-0-1--0--0-0-0-0-0-0-|
--L-0-0--0-0-1--0--0-0-0-0----|--0--0-0-0-0-1--0--0-0-0-0-0-0-|


  S S E  S S E  E  S S S S E     E  S S S S E  E  S S S S S S  
------------------------------|-------------------------------|
------------------------------|-------------------------------|
------------------------------|-------------------------------|
------------------------------|-------------------------------|
--L-0-0--0-0-1--0--0-0-0-0----|--0--0-0-0-0-1--0--0-0-0-0-0-0-|
--L-0-0--0-0-1--0--0-0-0-0----|--0--0-0-0-0-1--0--0-0-0-0-0-0-|


  S S E  S S E  E  S S S S E     E  S S S S E  E  S S S S S S  
------------------------------|-------------------------------|
------------------------------|-------------------------------|
------------------------------|-------------------------------|
------------------------------|-------------------------------|
--L-0-0--0-0-1--0--0-0-0-0----|--0--0-0-0-0-1--0--0-0-0-0-0-0-|
--L-0-0--0-0-1--0--0-0-0-0----|--0--0-0-0-0-1--0--0-0-0-0-0-0-|


  S S E  S S E  E  S S S S E     E  S S S S E  E  S S S S S S  
------------------------------|-------------------------------|
------------------------------|-------------------------------|
------------------------------|-------------------------------|
------------------------------|-------------------------------|
--L-0-0--0-0-1--0--0-0-0-0----|--0--0-0-0-0-1--0--0-0-0-0-0-0-|
--L-0-0--0-0-1--0--0-0-0-0----|--0--0-0-0-0-1--0--0-0-0-0-0-0-|


  S S E  S S E  E  S S S S E     E  S S S S E  E  S S S S S S  
------------------------------|-------------------------------|
------------------------------|-------------------------------|
------------------------------|-------------------------------|
------------------------------|-------------------------------|
--L-0-0--0-0-1--0--0-0-0-0----|--0--0-0-0-0-1--0--0-0-0-0-0-0-|
--L-0-0--0-0-1--0--0-0-0-0----|--0--0-0-0-0-1--0--0-0-0-0-0-0-|


  S S E  S S E  E  S S S S E     E  S S S S E  E  S S S S S S  
------------------------------|-------------------------------|
------------------------------|-------------------------------|
------------------------------|-------------------------------|
------------------------------|-------------------------------|
--L-0-0--0-0-1--0--0-0-0-0----|--0--0-0-0-0-1--0--0-0-0-0-0-0-|
--L-0-0--0-0-1--0--0-0-0-0----|--0--0-0-0-0-1--0--0-0-0-0-0-0-|


  S S E  S S E  E  S S S S E     E  S S S S E  E  S S S S S S  
------------------------------|-------------------------------|
------------------------------|-------------------------------|
------------------------------|-------------------------------|
------------------------------|-------------------------------|
--L-0-0--0-0-1--0--0-0-0-0----|--0--0-0-0-0-1--0--0-0-0-0-0-0-|
--L-0-0--0-0-1--0--0-0-0-0----|--0--0-0-0-0-1--0--0-0-0-0-0-0-|


  S S E  S S E  E  S S S S E     E  S S S S E  E  S S S S S S  
------------------------------|-------------------------------|
------------------------------|-------------------------------|
------------------------------|-------------------------------|
------------------------------|-------------------------------|
--L-0-0--0-0-1--0--0-0-0-0----|--0--0-0-0-0-1--0--0-0-0-0-0-0-|
--L-0-0--0-0-1--0--0-0-0-0----|--0--0-0-0-0-1--0--0-0-0-0-0-0-|


  S S E  S S E  E  S S S S E     E  S S S S E  E  S S S S S S  
------------------------------|-------------------------------|
------------------------------|-------------------------------|
------------------------------|-------------------------------|
------------------------------|-------------------------------|
--L-0-0--0-0-1--0--0-0-0-0----|--0--0-0-0-0-1--0--0-0-0-0-0-0-|
--L-0-0--0-0-1--0--0-0-0-0----|--0--0-0-0-0-1--0--0-0-0-0-0-0-|


  S S E  S S E  E  S S S S E     E  S S S S E  E  S S S S S S  
------------------------------|-------------------------------|
------------------------------|-------------------------------|
------------------------------|-------------------------------|
------------------------------|-------------------------------|
--L-0-0--0-0-1--0--0-0-0-0----|--0--0-0-0-0-1--0--0-0-0-0-0-0-|
--L-0-0--0-0-1--0--0-0-0-0----|--0--0-0-0-0-1--0--0-0-0-0-0-0-|


  S S E  S S E  E  S S S S E     E  S S S S E  E  S S S S S S  
------------------------------|-------------------------------|
------------------------------|-------------------------------|
------------------------------|-------------------------------|
------------------------------|-------------------------------|
--L-0-0--0-0-1--0--0-0-0-0----|--0--0-0-0-0-1--0--0-0-0-0-0-0-|
--L-0-0--0-0-1--0--0-0-0-0----|--0--0-0-0-0-1--0--0-0-0-0-0-0-|


  S S E  S S E  E  S S S S E          
------------------------------|-----||
------------------------------|-----||
------------------------------|-----||
------------------------------|-----||
--L-0-0--0-0-1--0--0-0-0-0----|-----||
--L-0-0--0-0-1--0--0-0-0-0----|-----||


Добавлено: 06.12.2013
Другие материалы по этой песне:

Страница создана 21.02.2012
http://primanota.ru/lamb-of-god/ashes-of-the-wake-chords.htm
Привет, Гость.
Предлагаем пройти революционный курс по гитаре.
Подарок от PrimaNota.Ru, забирай!