PrimaNota.ru - самый крупный в мире бесплатный архив песенных текстов, аккордов, табулатур и нот


La Dispute - A Departure - текст песни, таба, бас-таба, видео

Регистрация Запомнить меня
Войти через:  Facebook Google Twitter Vk Yandex Mail.ru

La Dispute - A Departure - текст песни, таба, бас-таба, видео

Печатать
Просмотров: 85
La Dispute - A Departure

Intro (not sure what exactly is going on here, but something like this)
E|----------------------------------------------------------|
B|----------------------------------------------------------|
G|----------------------------------------------------------|
D|---6-----5---6--6--6--------------------------------------|
A|----------------------------------------------------------|
E|-4*--4*3---4*-4*-4*--0-4*---------------------------------|

(4* is 3 bent)

Part 1

After playing each chord just kinda strum some notes from it. It's Ab
harmonic minor scale, hence I denote the second chord Fb and not E,
but it's the same chord.

   Abm     Fb  Gaug     (3x)
E|--4-------0--------------|--------------------------------|
B|--4-------0---0----------|--------------------------------|
G|--4-------1---0----------|--------------------------------|
D|--6-------2---1----------|--------------------------------|
A|--6-------2---2----------|--------------------------------|
E|--4-------0---3----------|---4-4b-------------------------|


Part 2 ("maybe you know...")

   Abm (very long)               Bb (2x)
E|--4--------------------------------|----------------------|
B|--4--------------------------------|----------------------|
G|--4--------------------------------|----------------------|
D|--6-----------------------------8--|----------------------|
A|--6-----------------------------8--|----------------------|
E|--4-----------------------------6--|----------------------|

Part 3 ("that i know you understand")
                        (2x)
E|-------------------------|---------------0----------------|
B|-------------------------|---------------0----0-----------|
G|-------------------------|---------------1----0-----------|
D|-2--5--2--5--6--5--6--5--|-2--5--2--5----2----1-----------|
A|-2--5--2--5--6--5--6--5--|-2--5--2--5----2----2-----------|
E|-0--3--0--3--4--3--4--3--|-0--3--0--3----0----3-----------|

Ending ("for everything")

E|--4------------------------------------------------------|
B|--4-----------------------------------4------------------|
G|--4-----------------------------------3------------------|
D|--6-----------------------------------1------------------|
A|--6-----------------------------------2------------------|
E|--4-----------------------------------1------------------|
Добавлено: 16.07.2013
Другие материалы по этой песне:
  • Аккорды и текст

Страница создана 16.07.2013
http://primanota.ru/la-dispute/a-departure-chords.htm
Привет, Гость.
Предлагаем пройти революционный курс по гитаре.
Подарок от PrimaNota.Ru, забирай!