PrimaNota.ru - самый крупный в мире бесплатный архив песенных текстов, аккордов, табулатур и нот


La Dispute - The Last Lost Continent - текст песни, таба, видео

Регистрация Запомнить меня
Войти через:  Facebook Google Twitter Vk Yandex Mail.ru

La Dispute - The Last Lost Continent - текст песни, таба, видео

Печатать
Просмотров: 182
Уроки эстрадного вокала в Санкт-Петербурге
The Last Continent by La Dispute
Tuning: Drop D
D-A-D-G-B-e



|------------------------------------------------------------------------|
|------------------------------------------------------------------------|
|------------------------------------------------------------------------|repeat
|-----------12-10-------x2------10-12------------10-12-------------------|as
|-----10-12-----------------------------12-10------------12--------------|needed
|-12--------------7-12------5-8-------8-------8--------8----8-10-12------|

|-------------------------------------------------------|
|-------------------------------------------------------|
|---2-0-3-------2-0-3---------0---2-----0---2-----------|
|-0-------2-3-0-------2-3---3---3-----3---3---3---------|
|-------------------------1---------1-------------------|
|-------------------------------------------------------|

|-------------------------------------------------------------------------|
|-------------------------------------------------------------------------|
|----------------------------------------14----14-------14----14----------|
|-15-15-15-15-15-17-14-14-14-14-14-15-12----12----12-12----12----12-------|
|-------------------------------------------------------------------------|
|-------------------------------------------------------------------------|

Goes into 7/8, with a measure of 6/8 somewhere in there, second time through i think
|-------------------------------------------------------------|
|-------------------------------------------------------------|
|-------------------------------------------------------------|
|-0-0-0-0-0-0--0-0--0-0-0-0--0-0-0-0-0-0--0-0-0-0-0-0---------|
|-0-0-0-0-0-0--0-8-10-8-7-5--3-3-3-3-3-3--3-3-3-3-2-2---------|
|-0-0-0-0-0-0--0-8-10-8-7-5--3-3-3-3-3-3--3-3-3-3-2-2---------|

This parts kind of tricky

|-------------------------------------------------------------------------------------------------|
|-------------------------------------------------------------------------------------------------|
|-------------------------------------------------------------------------7-----------------------|
|-----0---7---------0-------0-------0-------0-------0--------0--------0-------------0------0------|
|---5---5---5-----5-------5-------5---5---5-------5--------5--------5---5---5-----5------5--------|
|-0-----------0-3-----3-5-----5-8-------8-----8-7-----7-10-----10-8-----------8-7----7-5-----5-0--|


|-------------------------------------------------------|
|-------------------------------------------------------|
|-7-10-7-5-2-5-2-0---x3--7-10-7-5-2-5-2-----------------|
|-0~---------------3-----0~-----------3-3---------------|
|---------------------------------------5---------------|
|-------------------------------------------------------|

Over that part it seems to go into 7/8, while the background guitar stays 4/4,
|-------------------------------------------------------|
|-------------------------------------------------------|
|-------17-------------------------17-------------------|
|----19----19-15-17----15-------19----19-15-17----------|
|-17----------------19----15-17----------------19-------|
|-------------------------------------------------------|

Most of the next part is just openly strumming the D string


The next part gradually puts this all together(the * indicates the lyrics coming in)
|---------------------------------------------------------------------------|
|---------------------------------------------------------------------------|
|---------------------------------------------------------------------------|
|-----3-------------------------------3-------------------3-3-3-3-----------|
|-3-5---3-7-3-0-5-0-1-0-3-0-------*3-5---3-7-3-0-5-0-1-0-0------------------|
|---------------------------5-3-0-------------------------------------------|

That's most of it, there are a few parts i couldn't figure out and a few rhythmic 
differences, but this should give a basis
Добавлено: 07.03.2012
Другие материалы по этой песне:

Страница создана 07.03.2012
http://primanota.ru/la-dispute/the-last-lost-continent-chords.htm
Привет, Гость.
Предлагаем пройти революционный курс по гитаре.
Подарок от PrimaNota.Ru, забирай!