PrimaNota.ru - самый крупный в мире бесплатный архив песенных текстов, аккордов, табулатур и нот


La Dispute - Andria - текст песни, таба, бас-таба, видео

Регистрация Запомнить меня
Войти через:  Facebook Google Twitter Vk Yandex Mail.ru

La Dispute - Andria - текст песни, таба, бас-таба, видео

Печатать
Просмотров: 286
Andria by La Dispute
Tuning: Drop D
D-A-D-G-B-E


e|-----------------------------------------------------------------------------------------------|
B|-----------5-6-5--------------------10-12-10---------5-6-5-------------------------------------|
G|----9-----------------5------4------9--------9-------------------5------4----------------------|
D|----7-----------------3------2------7----------7-----------------3------2----------------------|
A|-----------------------------------------------------------------------------------------------|
D|--7----7-5--------5-3----3-2----2-7--------------7-5-------5--5-3---3-2----2-2--7-7-7-7-7-7-7-7|



e|---------------------------------------------------------------------------|
B|-----5-----5---5---------3-----------1-----1---1---------------------------|
G|-----5-----5---5-----4-----4---4-----2-----2---2-----5-----5---5-----------|
D|-7-7-7-7-7-7-7-7-5-5---5-----5---3-3-3-3-3-3-3-3-----7-----7---7-----------|
A|-------------------------------------------------8-8-8-8-8-8-8-8-----------|
D|---------------------------------------------------------------------------|



e|-----------------------------------------------------------------------------|
B|-----5-----5---5---------3-------------8--------8-----8------7-----7---7-----|
G|-----5-----5---5-----4-----4---4-------9--------9-----9------9-----8---8-----|
D|-7-7-7-7-7-7-7-7-5-5---5-----5---10-10-10-10-10-10-10-10-9-9-9-9-9-9-9-9-----|
A|-----------------------------------------------------------------------------|
D|-----------------------------------------------------------------------------|


e|-----------------------------------------------|
B|-----------------------------------------------|
G|-----------------------------------------------|
D|-----------------------------------------------|
A|-----------------------------------------------|
D|-235-7-7\--235-7-7\-235-7-7\-235-7-7\----------|


e|-----------------------------------------------------------------------------------------|
B|--5--------------------------------------------------------------------------------------|
G|--5--7---5-------------------------------------------------------------------------------|
D|--7--7---5---7---5--2---1--0-------------------------------------------------------------|
A|-----5---3---7---5--2---1--0-------------235-7-7\--235-7-7\-235-7-7\-235-7-7\--2--7------|
D|-------------7---5--2---1--0-------------235-7-7\--235-7-7\-235-7-7\-235-7-7\--2--7------|



e|--------|
B|--------|
G|--------|
D|--10----|
A|--7-----|
D|--7-----|


e|------------------------------------------------------------------------------------------------|
B|------------------------------------------------------------------------------------------------|
G|----------------------------------------------12-9----------------------------------------------|
D|----------------------10--------------------------12-10--------------------------10-12----------|
A|7-5-7-7---------10-12----12-10-7-5-7-7---7--9-----------7-5-7-7---7--9---7-5-7-7------10-7--7--9|
D|7-5-7-7--10-12-----------------7-5-7-7--10-12-----------7-5-7-7--10-12---7-5-7-7-----------10-12|



e|-----------------------------|
B|-----------------------------|
G|-----------------------------|
D|--10-9-7--10-5-7--3-5-7------|
A|--10-9-7--10-5-7--3-5-7------|
D|--10-9-7--10-5-7--3-5-7------|


e|--------------5-----------------------|
B|---5-8-5-----5-8-5------5----5--------|
G|--5-5---5---5-----7-5-5-5--5-5--------|
D|-7-------7-7---------7----7-----------| Repeat until the end
A|--------------------------------------|
D|--------------------------------------|

This is an amazing song by an amazing band, enjoy :)
Добавлено: 01.05.2012
Другие материалы по этой песне:

Страница создана 01.05.2012
http://primanota.ru/la-dispute/andria-chords.htm
Привет, Гость.
Предлагаем пройти революционный курс по гитаре.
Подарок от PrimaNota.Ru, забирай!