PrimaNota.ru - самый крупный в мире бесплатный архив песенных текстов, аккордов, табулатур и нот


La Dispute - The Most Beautiful Bitter Fruit - текст песни, таба, видео

Регистрация Запомнить меня
Войти через:  Facebook Google Twitter Vk Yandex Mail.ru

La Dispute - The Most Beautiful Bitter Fruit - текст песни, таба, видео

Печатать
Просмотров: 112
-------------------------------------------------------------------------------
             The Most Beautiful Bitter Fruit - La Dispute
-------------------------------------------------------------------------------


Email: egiwolfi [at] yahoo [dot] de

TUNING: EADGBe (standard)

Strumming not shown, I didn't tab every strum, but you should get the idea. Just listen
to the song.
Also, this was painful to tab, guitars aren't really in separate speakers, some notes
are very hard to hear, etc., so expect mistakes or notes missing. The tab looks harder
than it actually is though. Also, lots of annotations, because I'm not certain about 
some things.


TUNING: EADGBe (standard)

Intro/Verse

Guitar 1 (the empty low E string might be played along with the E chord, not sure about that)
e|---------------------------------------------------------------------|
B|---8-8--8-8-8--8-8-8-----------13-13--13-13-13--13-13-13-------------|
G|---9-9--9-9-9--9-9-9-----------14-14--14-14-14--14-14-14-------------|
D|---9-9--9-9-9--9-9-9----9--7---14-14--14-14-14--14-14-14----9--7-----|
A|---7-7--7-7-7--7-7-7---10--9---12-12--12-12-12--12-12-12---10--9-----|
E|---------------------------------------------------------------------|


Guitar 2 (joins at 0:25 with their singer)
e|--------------------------------------------|
B|--------------------------------------------| the second part is very hard to hear
G|--------------------------------------------| So I guess it's wrong
D|-----9-------9---------------7----9----7----|
A|---7-----7-7-------------------10---10------|
E|--------------------------------------------|

"all these secrets I keep..."

e|----------------|
B|--8-8-----8-8---|
G|--9-9-----9-9---|
D|--9-9-----9-9---|
A|--7-7-----7-7---|
E|--0-0-----0-0---|

Chorus 1

e|---------------------------------------|
B|---------------------------------------|
G|--9--7--5-------------4--5--2--5--7----|
D|--9--7--5---7-9-\-5---4--5--2--5--7----|
A|--7--5--3---7-9-\-5---2--3--0--3--5----|
E|------------5-7-\-3--------------------|

e|---------------------------------------|
B|---------------------------------------|
G|--9--7--5-------------4--5---9-9-9\----|
D|--9--7--5---7-9-\-5---4--5---9-9-9\----|
A|--7--5--3---7-9-\-5---2--3---7-7-7\----|
E|------------5-7-\-3--------------------|

The second time round, one guitar plays this melody over the D chord (X577XX)
e|-------------|
B|-------------|
G|-------------|
D|---7-7-9\5---|
A|-------------|
E|-------------|



Bridge 1 ("no pauses, ...)

Alright, this part was pretty hard to tab, I even watched some live videos of them
playing it. On those videos, I saw that something was played before the 5-3-0 2-0 thing, but
I have no idea what it might be, I can't hear it on the record. Also, this is actually 
played on the G and D string, but without the part before it, it doesn't really matter
where you play it...

Guitar 1 (lead)
e|----------------------------------------------------------------------------------|
B|---------3p0-----------------------------------------------------3p0--5-3-0-------|
G|---0---0-------7-4---------------0------------0---------------0-------------2-0---|
D|-2-----------------7-5\--------2-------7---(7)----9\7\5-----2---------------------|
A|-------------------------------------5-----(5)------------------------------------|
E|----------------------------------------------------------------------------------|

e|---------------------------------------------------------------|
B|---------------------------------------------------------------|
G|---0-----------0----------------9~ ----7~ ----5~ --------------|
D|-2------7-(7)-----9\7\5\-----------------------------7--9\-5---|
A|------5---(5)-----------------7------5------3--------7--9\-5---|
E|-----------------------------------------------------5--7\-3---|

Guitar 2 (might play more, perhaps the X57XXXX chord, but I can't really tell)
e|------------------|
B|------------------|
G|--0--------(0)----|
D|--2---0-----2-----|
A|--3---2-----2-----|
E|------3-----0-----|


Chorus 2 (it's the same except for the end)

e|---------------------------------------|
B|---------------------------------------|
G|--9--7--5-------------4--5--2--5--7----|
D|--9--7--5---7-9-\-5---4--5--2--5--7----|
A|--7--5--3---7-9-\-5---2--3--0--3--5----|
E|------------5-7-\-3--------------------|

e|---------------------------------------|
B|---------------------------------------|
G|--9--7--5-------------4--5---9-9-7-7---|
D|--9--7--5---7-9-\-5---4--5---9-9-7-7---|
A|--7--5--3---7-9-\-5---2--3---7-7-5-5---|
E|------------5-7-\-3--------------------|


Also, during the chorus (and at the end) one guitar plays those notes, they weren't that
easy to hear, but in live audio they are much clearer.
e|-----------------------------------------|
B|-----------------------------------------|
G|-------------------------12--------------|
D|---7-7-9\5-------------10-----7--9-9\5---|
A|---------------------10------------------|
E|-----------------------------------------|


Bridge 2 ("church steps, a vision")

Everything here is both guitars, except the part where I mention guitar 1 and 2.

e|------------------------------0------------------------|
B|------------------------------0------------------------|
G|------------------------------0------------------------|
D|--2/5-5\4-4-7-7---9\5-5--2--2-2------7\-5-5--4-4-4-4---|
A|-------------(5)--7\3-3--3--2-2--2-2/5\-3-3--2-2-2-2---|
E|----------------------------0-0------------------------|

e|---------------------|
B|------8--------------|
G|---0-----------------|
D|--------0-0-9-9\5----|
A|---------------------|
E|---------------------|

(This time, one, probably clean guitar just slightly picks the notes, the other one just
plays it as before in a more "strummed" way)
e|------------------------------0------------------------|
B|------------------------------0-----------0------------|
G|------------------------------0-----------0------------|
D|--2/5-5\4-4-7-7---9\5-5--2--2-2------7\-5-5--4-4-4-4---|
A|-------------(5)--7\3-3--3--2-2--2-2/5\-3-3--2-2-2-2---|
E|----------------------------0-0------------------------|

THEN:
Guitar 1
e|------------------------------------------------------------------|
B|-----12--10-10--12-12\8---5/8-8-7-7--10--8--10-8-8-5--8/10\8\5----|
G|--12--------------------------------------------------------------|
D|------------------------------------------------------------------|
A|------------------------------------------------------------------|
E|------------------------------------------------------------------|

Guitar 2 (joins at the 12\8 slide)
e|------------------------------------0------------------------|
B|------------------------------------0-----------0------------|
G|------------------------------------0-----------0------------|
D|-9-9\5--2/5-5\4-4-7-7---9\5-5--2--2-2------7\-5-5--4-4-4-4---|
A|-------------------(5)--7\3-3--3--2-2--2-2/5\-3-3--2-2-2-2---|
E|----------------------------------0-0------------------------|


Prechorus ("and when the feeling hits")

e|-------------------------------------------|
B|-------------------------------------------|
G|-------------------------------------------|
D|-------------------------------9--9--7-7---|
A|------------------------------10-10--9-9---|
E|-0-0-0-0-0-0---0-0-0-0-0-0-----------------|

Intro/Outro reprise

Mind the strumming, it's a lot like the "all these secrets I keep" part.

Guitar 1 (left speaker)
e|---------------------------------------------------------------------|
B|---------------------------------------------------------------------|
G|---9-9--9-9-9--9-9-9-----------14-14--14-14-14--14-14-14-------------|
D|---9-9--9-9-9--9-9-9----9--7---14-14--14-14-14--14-14-14----9--7-----|
A|---7-7--7-7-7--7-7-7---10--9---12-12--12-12-12--12-12-12---10--9-----|
E|---0-0--0-0-0--0-0-0-------------------------------------------------|

Guitar 2 (right speaker) is the same, except for the E chord
e|---------------------------------------------------------------------|
B|---------------------------------------------------------------------|
G|-------------------------------14-14--14-14-14--14-14-14-------------|
D|---2-2--2-2-2--2-2-2----9--7---14-14--14-14-14--14-14-14----9--7-----|
A|---2-2--2-2-2--2-2-2---10--9---12-12--12-12-12--12-12-12---10--9-----|
E|---0-0--0-0-0--0-0-0-------------------------------------------------|


End on the E chord of your chosen guitar. Guitar 1 does the strumming noise at the end though.
e|-------------------------------------|
B|-------------------------------------|
G|------------------------9-9--9-9-----|
D|--2-2--2-2--------------9-9--9-9-----|
A|--2-2--2-2--------or----7-7--7-7-----|
E|--0-0--0-0--------------0-0--0-0-----|




************************************

| /   slide up
| \   slide down
| h   hammer-on
| p   pull-off
| ~   vibrato
| +   harmonic
| x   Mute note
| b   Bend
| pb  Pre-bend
| br  Bend release
| pbr Pre-bend release
| brb Bend release bend

************************************
Добавлено: 16.10.2013
Другие материалы по этой песне:
  • Аккорды и текст

Страница создана 16.10.2013
http://primanota.ru/la-dispute/the-most-beautiful-bitter-fruit-chords.htm
Привет, Гость.
Предлагаем пройти революционный курс по гитаре.
Подарок от PrimaNota.Ru, забирай!