PrimaNota.ru - самый крупный в мире бесплатный архив песенных текстов, аккордов, табулатур и нот


La Dispute - St Paul Missionary Baptist Church Blues - текст песни, таба, бас-таба, видео

Регистрация Запомнить меня
Войти через:  Facebook Google Twitter Vk Yandex Mail.ru

La Dispute - St Paul Missionary Baptist Church Blues - текст песни, таба, бас-таба, видео

Печатать
Просмотров: 72
I didn't see any other tabs of this song on here, so I tried my hand at it. There 
are a few parts I'm not completely sure of, but I think I got most of it right.

Key of E

(Intro)
e|--------------------------|------------------------|
B|--------------------------|------------------------|
G|--4-----------------------|------------------------|
D|--2----4-----6------(3x)--|-------2----------------|
A|--4----2-----4------------|----4---4--2------------|
E|-------4-----5------------|--2-----------4~--------|

(Part 1)
The Intro part keeps going at the same time as this...
e|--------------------------------------------------|
B|--------------------------5--7--5-----5~----------|
G|-----4--6--4----------6------------6~---6-4-------|
D|---6----------6-----------------------------------|
A|--------------------------------------------------|
E|--------------------------------------------------|

e|--------------------------------------------------|
B|--------------------------------------------------|
G|-----4--6--4--------------------------------------|
D|---6----------6---4--4----------------------------|
A|------------------------7--7--6--6----------------|
E|--------------------------------------------------|

(Part 2)
e|--------------------------------------------------|
B|--------------------------------------------------|
G|--------------------------------------------------|
D|--------------------------------------------------|
A|---7----11-----7----11----9-----------------------|
E|---5----9------5----9-----7-----------------------|

One guitar plays the previous part while the other does this...
e|-----------------------|---------------------|
B|-----------------------|---------------------|
G|-----------------------|---------------------|
D|-----------------------|---6---6---6---6---6-|
A|---4---4---4---4---4---|-4---4---4---4---4---|
E|-5---5---5---5---5-----|---------------------|

e|-----------------------|---------------------|
B|-----------------------|---------------------|
G|-----------------------|---------------------|
D|-----------------------|---6---6---4---4---4-|
A|---4---4---4---4---4---|-4---4---2---2---2---|
E|-5---5---5---5---5-----|---------------------|



e|------------------|---------------------|
B|------------------|---9--9--9--9--9-----|
G|---6--6--6--6--6--|-6--6--6--6--6-------|
D|-7--7--7--7--7----|---------------------|
A|------------------|---------------------|
E|------------------|---------------------|

e|------------------|---------------------|
B|------------------|---9--9--7--7--7b----|
G|---6--6--6--6--6--|-6--6--4--4----------|
D|-7--7--7--7--7----|---------------------|
A|------------------|---------------------|
E|------------------|---------------------|


The second guitar comes in with this...
e|--------------------------------------------------|
B|--------------------------------------------------|
G|--9--6--------------------------------------------|
D|-------9--6-7-6-----9--9h11-----------------------|
A|-----------------7--------------------------------|
E|--------------------------------------------------|

e|--------------------------------------------------|
B|--------------------------------------------------|
G|--9--6--------------------------------------------|
D|-------9--6-7-6-----9--9h6------------------------|
A|-----------------7--------------------------------|
E|--------------------------------------------------|


(Part 3)

The next part goes something like this, but I'm not 100% sure...
e|-------------------------------------------------------|
B|-----4---4---4-----4-----------2-----2----2------------|
G|--6----6---6----6------6----4-----4---------2----------|
D|--7------------------6------2----------4-------4/6-----|
A|-------------------------------------------------------|
E|------------------Repeat-As-Needed---------------------|

This part goes until the end...
e|--------------------------------------------------|
B|--------------------------------------------------|
G|--------------------------------------------------|
D|--7---6---7---2----4---6---7---6------------------|
A|--7---6---2---2----4---6---7---6------------------|
E|--5---4---5---0----2---4---5---4------------------|


e|--------------------------------------------------|
B|--------------------------------------------------|
G|--------------------------------------------------|
D|-7--2--4--6----4--6~------------------------------|
A|-2--2--4--6----4--6~------------------------------|
E|-5--0--2--4----2--4~------------------------------|
Добавлено: 17.09.2013
Другие материалы по этой песне:
  • Аккорды и текст

Страница создана 03.08.2013
http://primanota.ru/la-dispute/st-paul-missionary-baptist-church-blues-chords.htm
Привет, Гость.
Предлагаем пройти революционный курс по гитаре.
Подарок от PrimaNota.Ru, забирай!