PrimaNota.ru - самый крупный в мире бесплатный архив песенных текстов, аккордов, табулатур и нот


La Dispute - Eleven - текст песни, таба, видео

Регистрация Запомнить меня
Войти через:  Facebook Google Twitter Vk Yandex Mail.ru

La Dispute - Eleven - текст песни, таба, видео

Печатать
Просмотров: 89
Tuning: Standard
This song has lots of distortion. Either use a distortion pedal or turn the volume all 
the way up on your guitar and down on your amp.
Verse 1: Play as many times as needed. Some parts are played really "neat" and other 
parts are played really sloppy hitting a lot of open notes.
e|-----------------------x-x-x-x-----------------------------------|
B|-----------------------x-x-x-x-----------------------------------|
G|------------5~---------x-x-x-x-----------------------------------|
D|----5h7-7---0~--7~---5-x-x-x-x-----------------------------------|
A|----0~----------0~---0-x-x-x-x-----------------------------------|
E|-----------------------x-x-x-x-----------------------------------|

Verse 2: Played one time between Verse 1 a few times.

e|----------------x-x----------------------------------------------|
B|----------------x-x----------------------------------------------|
G|----------------x-x----------------------------------------------|
D|-------3--3-33--x-x-------2-22-----------------------------------|
A|-------3--3-33--x-x-------2-22-----------------------------------|
E|---1~--1--1-11--x-x---0~--0-00-----------------------------------|

The solo I cannot figure out for the life of me, so if anyone can figure it out or can 
figure out even a little bit of it, please post it in the comments.

Also, if you have any corrections, or any changes/improvements to the tab, please post 
them below. Thanks!


| /  slide up
| \  slide down
| h  hammer-on
| p  pull-off
| ~  let ring
| +  harmonic
| x  Mute note
Добавлено: 16.11.2013
Другие материалы по этой песне:
  • Аккорды и текст

Страница создана 16.11.2013
http://primanota.ru/la-dispute/eleven-chords.htm
Привет, Гость.
Предлагаем пройти революционный курс по гитаре.
Подарок от PrimaNota.Ru, забирай!