PrimaNota.ru - самый крупный в мире бесплатный архив песенных текстов, аккордов, табулатур и нот


La Dispute - Said The King To The River - текст песни, таба, бас-таба, видео

Регистрация Запомнить меня
Войти через:  Facebook Google Twitter Vk Yandex Mail.ru

La Dispute - Said The King To The River - текст песни, таба, бас-таба, видео

Печатать
Просмотров: 158
Artist: La Dispute
Album: Somewhere at the Bottom of the River Between Vega and Altair
Song: Said the King to the River
Tuning: Drop D

I'm not sure how right this is since I tabbed it out at a school computer without 
my guitar with me,
but I memorized it pretty well, so this should be almost perfect. I tabbed it so that you can play
it by yourself - the other guitar parts aren't hard at all to figure out. Btw, timing isn't really
included, it's not hard to see where parts are played. Enjoy!

E|---0----|
B|---10---|
G|---9----| PLAY
D|---7----|  3X
A|---7----|
D|---7----|

E|-----------------------------------------------|
B|-----------------------------------------------|
G|-----------------------------------------------|
D|-----10---7-----10---7-----10---7-----10---7---|
A|---8----8-----8----8-----7----7-----7----7-----|
D|-----------------------------------------------|

E|-------|
B|-------|
G|---9---| PLAY 2X
D|---9---|
A|---7---|
D|-------|

E|-------------------------------------------------------------------------------------|
B|-------------------------------------------------------------------------------------|
G|-----------------------9-9-9-9-7-7-10-10---------------------------------------------|
D|---7-7-7-7-10-10-10-10---------------------10---7-----10---7-----10---7-----10---7---|
A|-----------------------------------------8----8-----8----8-----7----7-----7----7-----|
D|-------------------------------------------------------------------------------------|

E|-----------------------------------------------------------------------------------|
B|-----------------------------------------------------------------------------------|
G|---9-xxxx-9-xxxx-9-xx-9-xxxx-9-xxxx-9-xx-9-xxxx-9-xxxx-9-xx-5-5-5-10-10-10-10-10---| PLAY
D|---x-xxxx-x-xxxx-x-xx-x-xxxx-x-xxxx-x-xx-x-xxxx-x-xxxx-x-xx-x-x-x-x--x--x--x--x----|  2X
A|---7-xxxx-7-xxxx-7-xx-7-xxxx-7-xxxx-7-xx-7-xxxx-7-xxxx-7-xx-3-3-3-8--8--8--8--8----|
D|-----------------------------------------------------------------------------------|

E|-------|
B|-------|
G|---9---| PLAY
D|---9---|  2X
A|---7---|
D|-------|

E|---------------------------------------------------------------|
B|---------------------------------------------------------------|
G|---------------------------------------------------------------| PLAY 2X
D|---7------------7-------------7-7------------7-------------7---|
A|---7-0-7-10-7-0-7-0-7-10-7-10-7-7-0-7-10-7-0-7-0-7-10-7-10-7---|
D|---7------------7-------------7-7------------7-------------7---|

E|-----------------------------------------------|
B|-----------------------------------------------|
G|----------9-7---10--------------9-7------------| PLAY
D|---7---10------------9-7---10---------9---10---|  2X
A|-----------------------------------------------|
D|-----------------------------------------------|

E|------------|
B|------------|
G|------------| PLAY
D|--------7---|  2X
A|---5555-7---|
D|---5555-7---|
   PM----|

E|-----------------------------------------------|
B|-----------------------------------------------|
G|----------9-7---10--------------9-7------------| PLAY
D|---7---10------------9-7---10---------9---10---|  4X
A|-----------------------------------------------|
D|-----------------------------------------------|

E|---------------------------------------|
B|---------------------------------------|
G|---------------------------------------|
D|---------------------------------------|
A|---------------------------------------|
D|---7-7-7-7-7-7-7-7-7-7-7-7-7-7-7-7-----|
     PM---|PM---|PM---|PM---|PM-|PM------|

E|----------------------------------------------------------------|
B|----------------------------------------------------------------|
G|----------------------------------------------------------------| PLAY
D|---7-10-7-10-7------------9---9-7-10-7-10-7------------9---9^---|  3X
A|---------------10p8-8-8-5---5---------------10p8-8-8-5---5------|
D|----------------------------------------------------------------|

E|------------------------------------------------------------------------|
B|------------------------------------------------------------------------|
G|-----------------------------------------9p7----------------------------|
D|---5h7-7-7-7-7-5h7-7-7-7-7-10p7-7-7-10p7-----10p7-5h7---7-7-7-5h7-7-7---|
A|------------------------------------------------------------------------|
D|------------------------------------------------------------------------|

E|----------------------------------------------------------------|
B|----------------------------------------------------------------|
G|-----------------------------------------9p7--------------------|
D|---5h7-7-7-7-7-5h7-7-7-7-7-10p7-7-7-10p7-----10p7-5h7---5-5h7---|
A|----------------------------------------------------------------|
D|----------------------------------------------------------------|

E|-----------------------------------------------|
B|---10h13---------------------------------------|
G|---------12h14-9h12----------------------------| PLAY
D|--------------------12h14-12p10-9h10-9p7-7-7---|  2X
A|-----------------------------------------------|
D|-----------------------------------------------|

E|------------------------------------|
B|---10h13----------------------------|
G|---------12h14-9h12-----------------|
D|--------------------12h14---12h14---|
A|------------------------------------|
D|------------------------------------|

E|-----------------------------------------------|
B|---10h13---------------------------------------|
G|---------12h14-9h12----------------------------|
D|--------------------12h14-12p10-9h10-9p7-7-7---|
A|-----------------------------------------------|
D|-----------------------------------------------|

E|---------------------------------------------------------------------------------------|
B|---------------------------------------------------------------------------------------|
G|---------------------------------------------------------------------------------------|
D|---------------------------------------------------------------------------------------|
A|---------------------------------------------------------------------------------------|
D|---7-7-7-7-7-7-7-7-7-7-7-7-7-7-7-7-10-10-10-10-10-10-12-12-12-12-12-12-12-12-12-12-----|
     PM---|PM---|PM---|PM---|PM-|PM-| PM-----| PM-----| PM-----| PM-----| PM--| PM-------|

E|---------------------------------------------------------------------------------------|
B|---------------------------------------------------------------------------------------|
G|---------------------------------------------------------------------------------------|
D|---------------------------------------------------------------------------------------|
A|---------------------------------------------------------------------------------------|
D|---7-7-7-7-7-7-7-7-7-7-7-7-7-7-7-7-10-10-10-10-10-10-14-14-14-14-14-14-14-14-14-14-----|
     PM---|PM---|PM---|PM---|PM-|PM-| PM-----| PM-----| PM-----| PM-----| PM--| PM-------|

E|-----------------------------|
B|-----------------------------|
G|---------------9-9-9-9-------| PLAY
D|---------------9-9-9-9-------|  3X
A|---------------7-7-7-7-------|
D|---7-7-7-7-7-7-7-7-7-7-------|
   PM--------------------------|

E|---------------------------------------|
B|---------------------------------------|
G|---9-----9-----9-9---9-9---9-9-9-9-----|
D|---9-----9-----9-9---9-9---9-9-9-9-----|
A|---7-----7-----7-7---7-7---7-7-7-7-----|
D|---7-7-7-7-7-7-7-7-7-7-7-7-7-7-7-7-----|
     PM---|PM---|  PM-|  PM--------------|

x = muted note
PM = palm mute
h = hammer on
p = pull off
^ = pinch harmonic
Добавлено: 22.06.2012
Другие материалы по этой песне:

Страница создана 22.06.2012
http://primanota.ru/la-dispute/said-the-king-to-the-river-chords.htm
Привет, Гость.
Предлагаем пройти революционный курс по гитаре.
Подарок от PrimaNota.Ru, забирай!