PrimaNota.ru - самый крупный в мире бесплатный архив песенных текстов, аккордов, табулатур и нот


Kotaro Oshio - Oasis - таба, видео

Регистрация Запомнить меня
Войти через:  Facebook Google Twitter Vk Yandex Mail.ru

Kotaro Oshio - Oasis - таба, видео

Печатать
Просмотров: 152
Tuning: A E E F# B e

E |-9—11\7---0-------------h4----p2p0----7+---------------------|
B |-7x-----9---0----h4/5p0---------------7+---------------------|
F#|-7x-----------------------------------7+---------------------|
E |-7x-----------------------------------7+---------------------|
E |-7x-----------h4-----------h2------p0------------------------|
A |-------------------------------------------------------------| 

E |---0---7-5\4-4---0-----4-----0---7-5\4-4---0-2-+9------------|
B |-0---7---------0---7-7-----0---7---------0-------------------|
F#|---------7\5-5-----------5---------7\5-5-----3---------------|
E |-------------------------------------------------------------|
E |---------0---------------------------------------------------|
A |-------------------4---------------0---------2---------------| 

E |---0---7-5\4-4---0-----4-----0-0-------0---5---4-0-5+--------|
B |-0---7---------0---7-7-----0---------0-------------5+--------|
F#|---------7\5-5-----------5---------3---------3-----5+--------|
E |---------------------------------2---------------------------|
E |---------0---------------------2-----------------------------|
A |-------------------4---------------------2-------0-----------| 

E |---0---7-5\4-4---0-----4-----0---7-5\4-4---0-2---------------|
B |-0---7---------0---7-7-----0---7---------0-------------------|
F#|---------7\5-5-----------5---------7\5-5-----3---------------|
E |-------------------------------------------------------------|
E |---------0---------------------------------------------------|
A |-------------------4---------------0---------2---------------| 

E |---0---7-5\4-4---0-----4-----0-0-------0---5---4-0-0---------|
B |-0---7---------0---7-7-----0---------0-------------0---------|
F#|---------7\5-5-----------5---------3---------3-----0---------|
E |---------------------------------2-----------------0---------|
E |---------0---------------------2-------------------0---------|
A |-------------------4---------------------2-------0-0---------| 

E |---0----12-10\9---9-14-h12-11--------------------------------|
B |-0---12-----------------------14-14---12-12------------------|
F#|-----------12\10-10------------------------------------------|
E |------------------------------------0------------------------|
E |-------------------------------------------------------------|
A |-----------0---------------------11--------------------------|

E |-12-h11-9---------12+-------5-4-2/4-4------------------------|
B |----------12-10-----------0----------------------------------|
F#|------------------------3-------3/5-5------------------------|
E |----------------0--------------------------------------------|
E |--------------------------------0----------------------------|
A |--------------9-------2--------------------------------------| 

E |---0----12-10\9---9-14-h12-11--------------------------------|
B |-0---12-----------------------14-14---12-12------------------|
F#|-----------12\10-10------------------------------------------|
E |------------------------------------0------------------------|
E |-------------------------------------------------------------|
A |-----------0---------------------11--------------------------| 

E |-12-h11-9---------12+-------5-4-0-0-0---0--------------------|
B |----------12-10-----------0-------0-0---0--------------------|
F#|------------------------3---------0-0---0--------------------|
E |----------------0-----------------0-0---0--------------------|
E |----------------------------------0-5/7-7--------------------|
A |--------------9-------2---------0-0--------------------------| 

E |---0---7-5\4-4-0---0-----4---0---0---7-5\4-4-0---0-2-0-------|
B |-0---7---------0-0---7-7-----0-0---7---------0-0-----0-------|
F#|---------7\5-5-0-----------5-0---------7\5-5-0-----3-3-------|
E |---------------0-------------0---------------0-------0-------|
E |---------0---------------------------------------------------|
A |---------------------4-----------------0-----------2---------| 

E |---0---7-5\4-4-0---0-----4---0---0-0-------0---5---4-0-0-+12-|
B |-0---7---------0-0---7-7-----0-0---------0-------------0-+12-|
F#|---------7\5-5-0-----------5-0---------3---------3-----0-+12-|
E |---------------0-------------0-------2-----------------0-+12-|
E |---------0-------------------------2---------------------+12-|
A |---------------------4-----------------------2-------0---+12-| 

E |---0----12-10\9---9-14-h12-11-------------0------------------|
B |-0---12-----------0-----------14-14---12-12------------------|
F#|-----------12\10-10-----------------------0------------------|
E |------------------0-----------------0-----0------------------|
E |-------------------------------------------------------------|
A |-----------0---------------------11--------------------------| 

E |-12-h11-9---------12+----------5-4-2/4-4-0-------------------|
B |----------12-10----0---------0-----0---0-0-------------------|
F#|-------------------0-------3-------3/5-5-3-------------------|
E |----------------0--0---------------------0-------------------|
E |-----------------------------------0-----0-------------------|
A |--------------9------9\2-2-----------------------------------|  

E |---0----12-10\9---9-14-h12-11-------------0------------------|
B |-0---12-----------0-----------14-14---12-12------------------|
F#|-----------12\10-10-----------------------0------------------|
E |------------------0-----------------0-----0------------------|
E |-------------------------------------------------------------|
A |-----------0---------------------11--------------------------|

E |-12-h11-9---------12+----------5-4-0-0-----------------------|
B |----------12-10----0---------0-------0-----------------------|
F#|-------------------0-------3---------0-----------------------|
E |----------------0--0-----------------0-----------------------|
E |-------------------------------------0-----------------------|
A |--------------9------9\2-2---------0-0-----------------------| 

E |-0-0-5-7-5-4-1-0-5-7-5-12-10h12p10-9h10p9-7h9p7-5-7-7-5-4----|
B |-0-0-5-5-5-0-0-0-5-5-5--0--0--0--0-0--0-0-0-0-0-0-0-0-0-0----|
F#|-0-0-5-5-5-5-3-2-5-5-5--0--0--0--0-0--0-0-0-0-0-0-0-0-0-0----|
E |-0-0-5-----0-0-0-5------0--0--0--0-0--0-0-0-0-0-0-0-0-0-0----|
E |-5-4-5-----0-0-0-5------0--0---------------------------------|
A |-----5-----------5-------------------------------------------| 

E |-5-7-5-4-5-4-0----0-7-2-4-0----------------------------------|
B |-5-5-5-0-0-0-0----0-0-2-2-0----------------------------------|
F#|-5-5-5-0-0-0-0-7+-0-0-3-3-3----------------------------------|
E |-5-----0-0-0-0-7+-0-0-2-2-0----------------------------------|
E |-5-----0------------0-2---0----------------------------------|
A |-5-----4------------3-2---2----------------------------------| 

E |---0----12-10\9---9-14-h12-11-------------0------------------|
B |-0---12-----------0-----------14-14---12-12------------------|
F#|-----------12\10-10-----------------------0------------------|
E |------------------0-----------------0-----0------------------|
E |-------------------------------------------------------------|
A |-----------0---------------------11--------------------------| 

E |-12-h11-9---------12+----------5-4-2/4-4-5-7-----------------|
B |----------12-10----0---------0-----0---0-0-0-----------------|
F#|-------------------0-------3-------3/5-5-7-9-----------------|
E |----------------0--0---------------0---0-0-0-----------------|
E |-----------------------------------0---0-0-0-----------------|
A |--------------9------9\2-2-----------------------------------| 

E |---0----12-10\9---9-14-h12-11-------------0------------------|
B |-0---12-----------0-----------14-14---12-12------------------|
F#|-----------12\10-10-----------------------0------------------|
E |------------------0-----------------0-----0------------------|
E |-------------------------------------------------------------|
A |-----------0---------------------11--------------------------| 

E |-12-h11-9---------12+----------5-4-0-0-----------------------|
B |----------12-10----0---------0-------0-----------------------|
F#|-------------------0-------3---------0-----------------------|
E |----------------0--0-----------------0-----------------------|
E |-------------------------------------------------------------|
A |--------------9------9\2-2---------0-------------------------| 

E |----------------2p0------------------------------------------|
B |-----0--------------4-2-2---2-2------------------------------|
F#|---0---10-9\7-7----------------------------------------------|
E |-0------------------------0----------------------------------|
E |------------------------4------------------------------------|
A |----------0--------------------------------------------------| 

E |-------------0-----------------------------------------------|
B |-5\4-2p0-------------------------0-----0---------------------|
F#|---------3-----3-----0-3-2---0-----0---0-h2------------------|
E |-----------2-------0-------0---0-----0-0---------------------|
E |-3-------2-----------------------------0---------------------|
A |-----------------0---------0---------------------------------| 

| /  slide up
| \  slide down
| h  hammer-on
| p  pull-off
| ~  vibrato
| +  harmonic
| x  Mute note
Добавлено: 29.07.2012
Другие материалы по этой песне:

Страница создана 21.03.2012
http://primanota.ru/kotaro-oshio/oasis-chords.htm
Привет, Гость.
Предлагаем пройти революционный курс по гитаре.
Подарок от PrimaNota.Ru, забирай!