PrimaNota.ru - самый крупный в мире бесплатный архив песенных текстов, аккордов, табулатур и нот


Kotaro Oshio - Promises - таба, видео

Регистрация Запомнить меня
Войти через:  Facebook Google Twitter Vk Yandex Mail.ru

Kotaro Oshio - Promises - таба, видео

Печатать
Просмотров: 146
Promises - Kotaro Oshio - Dramatic
CGDGAD - Capo 5
BPM = 60

      ^                          ^                        
      E   E  E  E  Q    Q        E   E  Q    E  E  E  E   
D||--(5)----------------0----|---------------------------|
A||---0------0---------------|--(0)-------------------0--|
G||---4---------4--L---------|---0------0----L-----0-----|
D||-------0------------------|---1--------------1--------|
G||--(0)---------------------|-------0-------------------|
C||--------------------------|--(0)----------------------|


   E   E  E  E  E  E  E  E      E   E  Q    E  E  E  E   
--(5)-----------------0-----|---------------------------|
---0------0-----------------|--(0)-------------------0--|
---4---------4--L--------0--|---0------0----L-----0-----|
-------0-----------0--------|---1--------------1--------|
--(0)-----------------------|-------0-------------------|
----------------------------|--(0)----------------------|


   E   E   E   E  E  E  E  E      E   E   E   E  E  E  E  E   
------------------------------|------------------------------|
---3------(2)--------0--------|---0--------------------------|
---------------------------0--|----------(0)-----------------|
-------0-------0--0-----------|-------0-------0--L--0--4--2--|
--(0)----------0--------------|------------------------------|
------------------------6-----|--(4)-------------4-----2-----|


   E   E  E  E  E  E  E  E      E   E  E  E   E   E  E  E   
----------------------0-----|---------------------------0--|
----------------0--------0--|---L---------0---L------3-----|
----------0--------0--------|----------0----------4--------|
---2---------2--------------|-------2----------------------|
-------0--------------------|------------------------------|
--(0)-----------------------|--(0)-----------(2)-----------|


   E   E   E   E   E   E  E  E      E   E   E   E  E  E  E  E   
---7------(5)-------------4-----|---4------(2)-----------0-----|
--------------------------------|------------------------------|
---5-------4--------------2-----|---2-------0---------------0--|
-------0-------0---L---0-----0--|-------0-------0--L--0--------|
--(0)-------------(0)-----------|------------------------------|
--------------------------------|--(4)-------------4-----2-----|


   E   E  E  E   E   E  E  E      E   E  Q     E   E  E  E   
---0--------------------------|--------------------------0--|
----------3-------------2-----|---2------0-----L------3-----|
----------0-------------0-----|---0----------------4--------|
----------2--2---L------2--2--|----------1------------------|
-------0-------------0--------|-------0---------------------|
--(0)-----------(0)-----------|--(0)----------(0)-----------|


                  NH   NH   NH   NH                                
   E   E  E  E    E    E    E    E      E   E  E   E  E  E  E  E   
--(0)-----------<>7-----------------|--------------------------0--|
-------------0-------<>7------------|--------------------0--------|
----------0---------------<>7-------|-----------------0-----0-----|
-------4-----------------------<>7--|---L------0h--2--------------|
--(4)-------------------------------|-------0---------------------|
------------------------------------|--(0)------------------------|


                  NH   NH   NH   NH                                
   E   E  E  E    E    E    E    E      E   E  E   E  E  E  E  E   
--(0)-----------<>7-----------------|--------------------------0--|
-------------0-------<>7------------|-----------------------0-----|
----------0---------------<>7-------|-----------------0-----------|
-------4-----------------------<>7--|---L------0h--2-----2--------|
--(4)-------------------------------|-------0---------------------|
------------------------------------|--(0)------------------------|


   E   E  E  E   E   E  E  E      E   E  E  E   E   E  E  E   
---0--------------------------|---2------0-------------------|
----------3------2------0-----|-------------0---3------2-----|
---------------------------0--|-------0---------0---------0--|
-------2-----0---L---0--------|---------------------0--------|
--(2)-------------------------|--(4)-------------------------|
----------------(2)-----------|----------------(4)-----------|


   E   E  E  E   E   E  E  E     E  E  E  E  E  E  E  E   
-----------------7------5-----|--5-----4-----5-----7-----|
---0---------0-------------0--|-----0--------------------|
----------0----------0--------|--------5-----5-----7-----|
-------2----------------------|--0--------0-----0-----0--|
--(2)-----------(6)-----------|--------------------------|
------------------------------|--------------------------|


   E   E  S S E   E   E  E  E      E   E  S S E  E  E  E  E   
--10------9-9------------7-----|---7------5-5----------4-----|
-------------------------------|-----------------------0-----|
---9------7-7------------5-----|---5------4-4----------------|
-------0------0-------0-----0--|-------0------5--L--5-----0--|
--(0)------------(0)-----------|-----------------------------|
-------------------------------|--(4)------------4-----2-----|


   E   E  Q      E   E  E  E      E   E  E  E   Q     E  E   
---2-------------5---4--2--0--|--(0)------------0--------0--|
---3------3S-----7---5--3-----|-------------0---------------|
-------0----------------------|----------0------------------|
------------------------------|-------4---------------4-----|
------------------------------|--(4)-----------(4)----------|
--(0)-----------(0)-----------|-----------------------------|


   E   E  E  E   E   E  E  E      E   E  E  E   Q     E  E   
---0-------------5------------|-----------------4--------2--|
-------3-----3-------------3--|---3p--2-----2---0-----------|
----------4-------------0-----|----------3------------------|
-------2-------------0--------|-------0---------------0-----|
--(2)-----------(2)-----------|--(0)------------------------|
------------------------------|----------------(4)----------|


   E   E  E  E    E   E  E  E      E  E  E  E  E  E  E  E   
---0---------2p---0---------2h--|--0-----0-----5-----7-----|
--------------------------------|--------0-----------------|
----------0-------L------0------|-----0--------5-----7-----|
-------2--------------2---------|--0--------0-----0-----0--|
--(2)------------(2)------------|--------------------------|
--------------------------------|--------------------------|


   E   E  S S E   E   E  E  E      E   E  S S E  E  E  E  E   
--10------9-9------------7-----|---7------5-5----------4-----|
-------------------------------|-----------------------0-----|
---9------7-7------------5-----|---5------4-4----------------|
-------0------0-------0-----0--|-------0------5--L--5-----0--|
--(0)------------(0)-----------|-----------------------------|
-------------------------------|--(4)------------4-----2-----|


   E   E  Q      E   E  E  E      E   E  E  E   Q.      E   
---2-------------5---4--2--0--|--(0)------------0-------0--|
---3------3S-----7---5--3-----|-------------0--------------|
-------0----------------------|----------0-----------------|
------------------------------|-------4--------------------|
------------------------------|--(4)-----------(4)---------|
--(0)-----------(0)-----------|----------------------------|


   E   E  E  E   E   E  E  E      E   E  E  E   Q     Q     
---0-------------5------------|-----------------4-----2----|
-------3-----3-------------3--|---3p--2-----2---0----------|
----------4-------------0-----|----------3-----------------|
-------2-------------0--------|-------0---------------0----|
--(2)-----------(2)-----------|--(0)-----------------------|
------------------------------|----------------(4)---------|


   E   E  E  E   Q     E  E      E   E  E  E  Q    E  S  S   
---0-------------------------|------------------------0h-2h-|
----------3------------------|------------------------------|
----------0------------------|--(0)-----------L-------------|
-------2-----0---2--------4--|-------0-----0----------------|
--(2)------------------2-----|---0------5-----4-------------|
----------------(2)----------|------------------------------|


   E   E  E   E  E  E  E  S  S      E   E  E  E  E  E  E  E   
--(0)------------------0--0h-2h-|--(0)-----------------0--0--|
--------------------------------|-------------0--L-----------|
--------------------0-----------|----------0--------0--------|
----------0h--2--L-----2--------|-------0--------------0-----|
-------0------------------------|--(4)-----------------------|
--(0)---------------------------|----------------------------|


   E   E  E  E   E   E  Q        E   E  E  E  Q    E  S  S   
---0-------------------------|----------------0-------0h-2h-|
----------3-------------0----|--(2)-------------------------|
-------------4---0-----------|----------0-------------------|
-------2---------------------|-------0-----0--L-------------|
--(2)----------------2-------|--(0)-------------------------|
----------------(2)----------|------------------------------|


   E   E  E   E  E  E  E  S  S      E   E  E  E  E  E  E  E   
--(0)------------------0--0h-2h-|--(0)-----------------0--0--|
--------------------------------|-------------0--L-----------|
--------------------0-----------|----------0--------0--------|
----------0h--2--L-----2--------|-------0--------------0-----|
-------0------------------------|--(4)-----------------------|
--(0)---------------------------|----------------------------|


   E   E  E  E  E  E  Q       E  E  E  E  E  E  E  E   
---0-----------------------|--------------------------|
----------3-----------0----|--------------------0-----|
----------------4----------|--------------0--------0--|
-------2-----2--L--2-------|--0-----4-----------------|
--(2)----------------------|-----2-----2--L--2--------|
---------------------------|--2-----------------------|


   E   E  E  E   E   E  E  E      E   E  E  E   E   E  E  E   
---------------------------0--|---0-------------5------------|
----------0-------------------|-------3-----3-------------3--|
---0---------0---0------0-----|----------4-------------0-----|
-------0---------0---0--------|---------------------0--------|
--(0)-------------------------|--(2)-------------------------|
----------------(4)-----------|----------------(2)-----------|


   E   E  E  E   Q.      E      E   E  E  E   E   E  E  E   
-----------------2-------2--|---0-------------2------4-----|
---3p--2-----2---0----------|----------3------3------3-----|
----------3-----------------|----------0-------------------|
-------0--------------------|-------2-----0-------0-----0--|
--(0)-----------------------|--(2)-------------------------|
----------------(4)---------|----------------(2)-----------|


                 ^           
   E   E  E  E   H           
--(5)----------------------||
---5------5-----(2)--------||
---5---------5--(0)--------||
-------0--------(0)--------||
--(0)-----------(0)--------||
---------------------------||




Duration Legend
---------------
W - whole
H - half
Q - quarter
E - 8th
S - 16th
T - 32nd
X - 64th
. - note dotted
|-n-|  - n-tuplets


Tablature Legend
----------------
L - tied note
x - dead note
g - grace note
(n) - ghost note
> - accentuded note
NH - natural harmonic
AH - artificial harmonic
TH - tapped harmonic
SH - semi harmonic
PH - pitch harmonic
h - hammer on
p - pull off
b - bend
br - bendRelease
pb - preBend
pbr - preBendRelease
brb - bendReleaseBend
\n/ - tremolo bar dip
\n - tremolo bar dive
-/n - tremolo bar Release up
/n\ - tremolo bar inverted dip
/n - tremolo bar return
-\n - tremolo bar Release down
S - shift slide
s - legato slide
/ -  slide into from below or out of upwards
\ -  slide into from above or out of downwards
~ - vibrato
W - wide vibrato
tr - trill
TP - tremolo picking
T - tapping
S - slap
P - pop
< - fade in
^ - brush up
v - brush down
Добавлено: 28.04.2012
Другие материалы по этой песне:

Страница создана 26.04.2012
http://primanota.ru/kotaro-oshio/promises-chords.htm
Привет, Гость.
Предлагаем пройти революционный курс по гитаре.
Подарок от PrimaNota.Ru, забирай!