PrimaNota.ru - самый крупный в мире бесплатный архив песенных текстов, аккордов, табулатур и нот


Kotaro Oshio - Prologue - таба, видео

Регистрация Запомнить меня
Войти через:  Facebook Google Twitter Vk Yandex Mail.ru

Kotaro Oshio - Prologue - таба, видео

Печатать
Просмотров: 128
Prologue - Kotaro Oshio - Dramatic
Standard Tuning
BPM = 62


     G                                           G
     E  E  E  E  E  E     E  E  E  E  E  E       E  E  E  E  E  E
E||--------------------|--------------------||---------------------|
B||--------------------|--------------------||---3-----------------|
G||-----------0--------|-----------0--------||*-----------0--------|
D||--------0-----0-----|--------0-----0-----||*--------0-----0-----|
A||-----2-----------2--|-----2-----------2--||------2-----------2--|
E||--3-----------------|--3-----------------||---3-----------------|


  D/F#                     Dm7                   G/D
  E    E  E  E    E  E     E   E  E  E  E  E     E   E   E  E   E  E
------------------------|---------------------|--7-------8-----10-----|
--3----------3S--10-----|--8------------------|--8------10-----12-----|
-------------0----------|---------0-----0-----|-----------------------|
----------0----------0--|------9-----9-----0--|--0---0------0------0--|
-------0----------------|---------------------|-----------------------|
--2---------------------|--0------------------|-----------------------|


  F#m7(-5)/C                   Am7/D                   G
  E          E  E  E  E  E     E     E  E  E  E  E     E  E  E  E  E  E
----------------------------|-----------------------|--------------------|
----------------------------|--5--------7-----8-----|--0-----------------|
--9-------------------0-----|--------5-----5-----5--|-----------0--------|
----------------7--------0--|--------5-----5-----5--|--------0-----0-----|
-------------9-----9--------|--5--------------------|-----2-----------2--|
--8-------------------------|-----------------------|--3-----------------|


                       Dm/F                   C/E
  E  E  E  E  E  E     E    E  E  E  E  E     E   E  E  E  E  E
--------------------|----------------------|---------------------|
--L--------0--1--3--|--3----------L--1--0--|--1---------L-----0--|
-----------0--------|----------2-----------|---------0-----2-----|
--------0-----------|-------3-----3--------|------2-----2--------|
-----2--------------|----------------------|---------------------|
--3-----------------|--1-------------------|--0------------------|


  Am(-5)                Gm/D                   C#m7(-5)
  Q      E  E  E  E     E    E  E  E  E  E     E        E  E  E  E  E
---------------------|----------------------|--------------------------|
--1---------L--0-----|--0----------L--0-----|--0--------------L--0-----|
---------2--------2--|-------0-----0-----0--|--------------0-----------|
--1---------1--------|--0-------0-----0-----|-----------2-----------0--|
---------------------|----------------------|--4--------------4--------|
---------------------|----------------------|--------------------------|


  C                    G/B                   A7
  E  E  E  E  E  E     E   E  E   E  Q       E  E  E  E  E  E
--0-----2-----3-----|--3------3S-----7----|--------------------|
--------------------|------3------3-------|--5--------L--5--7--|
-----0-----0-----0--|---------------------|--------6-----------|
--------------------|---------------------|-----5-----5--------|
--3-----------------|--2----------L-------|--0-----------------|
--------------------|---------------------|--------------------|


  D7sus4       D7                               G
  E      E  E  E  E  E     E  E  E  E  E  E     E  E  E  E  E  E
------------------------|--7-----5-----3--2--|--3-----------------|
--8------------L--7-----|--------------------|-----------0--------|
---------5-----5-----5--|-----5-----5--------|--------0-----0-----|
--0---------0-----------|--0-----------------|-----0-----------0--|
------------------------|--------------------|--------------------|
------------------------|--------------------|--3-----------------|


  Am7(-5)/G                 G                    Am7(-5)/G
  E         E  E  Q.        E  E  E  E  E  E     E         E  E  E  E  E
---------------3--L------|--------------3-----|--3---------------3--3--3--|
------------------L------|--0--------0--------|--1------------1-----------|
--2------------2--L------|--0-----0--------0--|--2------------2-----------|
------------1------------|--0--0--------------|------------1--------------|
-------------------------|--------------------|---------------------------|
--3----------------------|--3-----------------|--3------------------------|


  G                    Am7(-5)/G                   G
  E  E  E  E  E  E     E         E  E  E  E  E     E  E  E  E  E  E
--3-----------------|---------------3-----------|--3-----------3-----|
--0--------0--------|------------1-----1-----1--|--0--------0-----0--|
--0-----0-----0-----|--2------------2--L--2-----|--0-----0-----------|
-----0-----------0--|------------1-----------1--|-----0--------------|
--------------------|---------------------------|--------------------|
--3-----------------|--3------------------------|--3-----------------|


  Am7(-5)/G                    G                    C/G
                                                           ^
  E         E  E  E  Q         E  E  E  E  E  E     E   E  E  E  E  E
--3------------------3-----||--3-----------------|---------3-----------|
--1---------------1--------||-----------0-----0--|--1------1-----1-----|
--2------------2----------*||--------0-----0-----|--0------0--------2--|
------------1-------------*||-----0--------------|------2-----2--------|
---------------------------||--------------------|---------------------|
--3------------------------||--3-----------------|--3------------------|


  G
  ^
  H.
--3------------||
--0------------||
--0------------||
--0------------||
--2------------||
--0------------||


Duration Legend
---------------
W - whole
H - half
Q - quarter
E - 8th
S - 16th
T - 32nd
X - 64th
. - note dotted
|-n-|  - n-tuplets


Tablature Legend
----------------
L - tied note
x - dead note
g - grace note
(n) - ghost note
> - accentuded note
NH - natural harmonic
AH - artificial harmonic
TH - tapped harmonic
SH - semi harmonic
PH - pitch harmonic
h - hammer on
p - pull off
b - bend
br - bendRelease
pb - preBend
pbr - preBendRelease
brb - bendReleaseBend
\n/ - tremolo bar dip
\n - tremolo bar dive
-/n - tremolo bar Release up
/n\ - tremolo bar inverted dip
/n - tremolo bar return
-\n - tremolo bar Release down
S - shift slide
s - legato slide
/ -  slide into from below or out of upwards
\ -  slide into from above or out of downwards
~ - vibrato
W - wide vibrato
tr - trill
TP - tremolo picking
T - tapping
S - slap
P - pop
< - fade in
^ - brush up
v - brush down
Добавлено: 05.03.2012
Другие материалы по этой песне:

Страница создана 05.03.2012
http://primanota.ru/kotaro-oshio/prologue-chords.htm
Привет, Гость.
Предлагаем пройти революционный курс по гитаре.
Подарок от PrimaNota.Ru, забирай!