PrimaNota.ru - самый крупный в мире бесплатный архив песенных текстов, аккордов, табулатур и нот


Kotaro Oshio - First Love - таба, видео

Регистрация Запомнить меня
Войти через:  Facebook Google Twitter Vk Yandex Mail.ru

Kotaro Oshio - First Love - таба, видео

Печатать
Просмотров: 249
Уроки эстрадного вокала в Санкт-Петербурге
First Love - Kotaro Oshio - Starting Point
Alternate Tuning - AEEF#BE
BPM = 70

      ^                                                               
      E   E   E   E  E   E   E   E     E   E   E   E  E   E   E   E   
E ||--0--------------0--------------|--0--------------0--------------|
B ||-------------12-------------12--|-------------12-------------12--|
F#||---------13-------------13------|---------13-------------13------|
E ||-----14-------------14----------|-----14-------------14----------|
E ||--0-----------------------------|--L-----------------------------|
A ||--------------------------------|--------------------------------|


  E   E   E   E  E   E   E   E     E   E   E   E  E   E   E   E   
--0--------------0--------------|--0--------------0--------------|
-------------10-------------10--|-------------10-------------10--|
---------12-------------12------|---------12-------------12------|
-----10-------------10----------|-----10-------------10----------|
--0-----------------------------|--L-----------------------------|
--------------------------------|--------------------------------|


  E  E  E  E  E  E  E  E     E  E  E  E  E  E  E  E   
--0-----------0-----------|--0-----------0-----------|
-----------8-----------8--|-----------8-----------8--|
--------8-----------8-----|--------8-----------8-----|
-----8-----------8--------|-----8-----------8--------|
--0-----------------------|--L-----------------------|
--------------------------|--------------------------|


  E  E  E  E  E  E  E  E     E  E  E  E  E  E  E  E   
-----------0--------0-----|-----------0--------0-----|
--------------7--------7--|--------------7--------7--|
--------9--------9--------|--------9--------9--------|
-----7--------------------|-----7--------------------|
--0-----------------------|--0-----------------------|
--------------------------|--------------------------|


  E   E   E   E   E   E  E   E      E   E   E  E  E   E  E   E   
--0--------------14---------12--|--12-------------0-------------|
-------------12----------0------|--------------0---------0------|
---------13----------13---------|----------13--------13-----13--|
-----14-------------------------|------14-----------------------|
--0-----------------------------|---0---------------------------|
--------------------------------|-------------------------------|


  E   E   E   E   E   E   E   E     E   E   E   E   E   E   E   E   
-----------------12-------L--10--|--0--------------10--------------|
-------------10----------10------|-------------10------10----------|
---------12----------12----------|---------12--------------12------|
-----10--------------------------|-----10----------------------10--|
--0------------------------------|--0------------------------------|
---------------------------------|---------------------------------|


  E  E  E  E   E  E  E  E     E  E  E  E  E  E  E  E   
--------------10--------8--|--8-----------8-----------|
-----------8---------8-----|-----------8-----8-----8--|
--------8---------8--------|--------8-----------8-----|
-----8---------------------|-----8--------------------|
--0------------------------|--0-----------L-----------|
---------------------------|--------------------------|


  E  E  E  E  E  E  E  E     E  E   E  E  E  E  E  E   
--------------7-----8-----|--7------------------------|
-----------7--------------|--------10-----8-----7-----|
--------9--------9-----9--|-----9------9-----9-----9--|
-----7--------------------|---------------------------|
--0-----------------------|--L------------------------|
--------------------------|---------------------------|


  E  E  E  E  E  E  E  E     E  E  E  E  E  E  E  E   
--7-----------------L--8--|--L-----------------L--0--|
--------------------------|--------0--------0--------|
--------0--------0--------|-----------5--L-----------|
-----0-----3--L-----0-----|-----5--------------5-----|
--0--------------------L--|--0--------------------L--|
--------------------------|--------------------------|


  E  E  E  E  E  E  E  E     E  E  E  E  E  E  E  E   
--L-----------L-----------|--------------------------|
-----------------3-----0--|--L--------0--L-----------|
-----0-----3--L-----3-----|--------3--------3-----0--|
--------3-----------3-----|-----3-----3--L-----3-----|
--------------------------|--3-----------------------|
--5--------------------L--|--------------------------|


  E  E  E  E  E  E  E  E     E  E  E  E  E  E  E  E   
--0-----------------L--0--|--L-----------------L--0--|
--------------------------|--------0--------0--------|
--------0--------0--------|-----------6--L-----------|
-----0-----3--L-----0-----|-----5--------------5-----|
--------------------------|--------------------------|
--3--------------------L--|--0-----------------------|


  E  E  E  E  E  E  E  E     E  E  E  E  E  E  E  E   
--L-----------------0-----|--0-----------------------|
-----------0--L--------0--|-----0-----0-----------0--|
--------0--0--L--0--------|--------0--------0--------|
--------------------------|--------------3-----3-----|
-----2--------------------|--0-----------------------|
--2-----------------L-----|--------------------------|


                |--3--|                                            
  E  E  E   S S S  S  S  E  E   E     E  E  E     E   E  E  E  E   
--7--------------------------------|--7---------------------------|
-----------10-8-7h-8p-7------------|-----------9g10--10--------8--|
--------0---------------10--9--10--|--------8---------------8-----|
-----0----------------------8---7--|-----8---------------8--------|
--0-------------0------------------|------------------------------|
-----------------------------------|--0---------------------------|


  E.  T T E  S S E  E  E     E      E   S  S  E   E   E   E   E   E   
--------0-----------------------|------------------------------------|
--8---7---7------------7--7g13--|--13-----12-12----------------------|
-------------8---L--8-----------|--10----------------------------10--|
------5-------------5-----------|------10-10-10--------------10------|
--------------------------------|----------------10------10----------|
--5------------L-5--------------|--10----------------10--------------|


  E  S S E  E  E  E  E  E     E  S S Q    E  E  E  E   
--0----2-3--------L--2--0--|--0--------------------0--|
------------0--------------|-------7-8----------7-----|
---------1--------0--------|-----6--------------6-----|
-----0---------------------|-----5-----------5--------|
---------------------------|--------------------------|
--3------------3-----------|--0-----------0-----------|


  E  S S Q    E  E   Q       E  E  E  E  E  E  E  E   
--0-----------------------|--0-----------L-----------|
-------3-3----------/7----|-----0-----0-----------0--|
---------0-------0--------|--------0--------0--------|
--------------------------|--------5-----4-----4-----|
-----2--------------------|--0-----------0-----------|
--2-----------2-----------|--------------------------|


                                          NH                       
                            |--3--|                                
   E   S S E  E   E   E  E  S  S  S       E  E  E  E  E  E  E  E   
---0-----------------14-------12-11-|--------------------------0--|
---------0-0------------------------|--<>12-----------------0-----|
---------0-0--0---------------------|-----------------0-----------|
------------------------------------|--------------4-----4--------|
------11----------------------------|-----------4-----------------|
--11-------------11-----------------|--------4--------4-----------|


  E.  S E  E  E  E  E  E     E  S S E  E  E  E  E  E   
--5---4-0-----------------|--5----4-0--------------0--|
-----------0-----------0--|------------0--------0-----|
--------3-----3-----3-----|---------3-----3-----------|
-----------------2--------|------------------2--------|
--2-----------------------|-----2---------------------|
--------------------------|--2------------L-----0-----|


                                          NH                       
                            |--3--|                                
   E   S S E  E   E   E  E  S  S  S       E  E  E  E  E  E  E  E   
---0-----------------14-------12-11-|--------------------------0--|
---------0-0------------------------|--<>12-----------------0-----|
---------0-0--0---------------------|-----------------0-----------|
------------------------------------|--------------4-----4--------|
------11----------------------------|-----------4-----------------|
--11-------------11-----------------|--------4--------4-----------|


  E.  S E  E  E  E  E  E     E  S S Q    E  E  E  E   
--5---4-0-----------------|--5----4-0----------0-----|
-----------0-----------0--|--------------0--------0--|
--------3-----3-----3-----|-----------------3--------|
-----------------2--------|---------2----------------|
--2-----------------------|-----2--------------------|
--------------------------|--2------L----------------|


  E   E   E   E   E   E  E   E      E   E   E  E  E   E  E  E   
--0--------------14---------12--|--12-------------0---------0--|
-------------12----------0------|--------------0---------0-----|
---------13----------13---------|----------13--------13--------|
-----14-------------------------|------14----------------------|
--0-----------------------------|---0--------------------------|
--------------------------------|------------------------------|


  E   E   E   E   E   E   E   E      E   E   E   E   E   E   E   E   
-----------------12----------10--|--10--------------10--------------|
-------------10----------10------|--------------------------10------|
---------10----------10----------|----------10----------10------10--|
-----10--------------------------|------10------10------------------|
--0------------------------------|---0---------------L--------------|
---------------------------------|----------------------------------|


  E  E  E  E   E  E  E  E     E  E  E  E  E  E  E  E   
--------------10--------8--|--8-----------8-----------|
-----------8---------8-----|--------------------8-----|
--------8---------8--------|--------8--------------8--|
-----8---------------------|-----8-----8-----8--------|
--0------------------------|--0-----------L-----------|
---------------------------|--------------------------|


  E  E  E  E  E  E  E  E     E  E   E  E  E  E  E  E   
--------------7-----8-----|--7------------------------|
-----------7--------------|--------10-----8-----7-----|
--------9--------9-----9--|-----9------9-----9-----9--|
-----7--------------------|---------------------------|
--0-----------------------|--L------------------------|
--------------------------|---------------------------|


  E  S S E  E  E  E  E  E     E  E  E  E  E  E  E  E   
--5----4-0--------L-----0--|--0-----------------------|
------------0--------0-----|-----0-----0-----------0--|
---------------3-----------|--------0--------0--------|
---------2--------2--------|--------------5-----5-----|
-----2---------------------|--0-----------------------|
--2------------------------|--------------------------|


                NH         
  E  E  E  E    H          
--------------<>5--------||
-----------0--<>5--------||
-----0--------<>5--------||
--4-----4-----<>5--------||
--0----------------------||
-------------------------||




Duration Legend
---------------
W - whole
H - half
Q - quarter
E - 8th
S - 16th
T - 32nd
X - 64th
. - note dotted
|-n-|  - n-tuplets


Tablature Legend
----------------
L - tied note
x - dead note
g - grace note
(n) - ghost note
> - accentuded note
NH - natural harmonic
AH - artificial harmonic
TH - tapped harmonic
SH - semi harmonic
PH - pitch harmonic
h - hammer on
p - pull off
b - bend
br - bendRelease
pb - preBend
pbr - preBendRelease
brb - bendReleaseBend
\n/ - tremolo bar dip
\n - tremolo bar dive
-/n - tremolo bar Release up
/n\ - tremolo bar inverted dip
/n - tremolo bar return
-\n - tremolo bar Release down
S - shift slide
s - legato slide
/ -  slide into from below or out of upwards
\ -  slide into from above or out of downwards
~ - vibrato
W - wide vibrato
tr - trill
TP - tremolo picking
T - tapping
S - slap
P - pop
< - fade in
^ - brush up
v - brush down
Добавлено: 31.07.2012
Другие материалы по этой песне:

Страница создана 29.03.2012
http://primanota.ru/kotaro-oshio/first-love-chords.htm
Привет, Гость.
Предлагаем пройти революционный курс по гитаре.
Подарок от PrimaNota.Ru, забирай!