PrimaNota.ru - самый крупный в мире бесплатный архив песенных текстов, аккордов, табулатур и нот


Kotaro Oshio - Twilight - таба, видео

Регистрация Запомнить меня
Войти через:  Facebook Google Twitter Vk Yandex Mail.ru

Kotaro Oshio - Twilight - таба, видео

Печатать
Просмотров: 649
heyy there. so..there aren't many tabs out there on this song, so here it is! any 
comments? email me at sk8tordiehp7@yahoo.com. yes i know it's corny. =P


TWILIGHT – Kotaro Oshio
-----------------------------------------------------------------
Tabbed by: hannah lugtu
Email: sk8tordiehp7@yahoo.com
Tuning: Standard

e|-3-2-0-----|-------|-----------0-------------7-5-2h3p2p0-------|---------|
B|-------0---|-----0-|---------0---3-1-0-1-0-1-------------3-----|---------|
G|---------0-|-----2-|-------0-----------0---------------------2-|-2----1--|
D|---------2-|-----1-|-----2---------------------0-------------3-|-3----3--|
A|-----------|-------|-------------------0-------------------2---|---------|
E|-------0---|-0-2---|-2-3-------4-------------------------------|----0----|

e|---------3-2-----------------2-0---2---3---|-----3-2-0-4---|--------------|
B|-0-1-0-1-----4-3-1-0h1p0---0-------------2-|-2---2-----2-0-|--------------|
G|---0---------------------3-------0---0---3-|-3-----------2-|--------------|
D|-----------0-------------------------------|---------------|--------------|
A|---0---------------------------3-----------|-----------2-2-|--------------|
E|-------------------3-------------------2---|---2-----------|--------------|

e|-3-2-0-----|-------|-----------0-------------7-5-7-8/10------|------------|
B|-------0---|-----0-|---------0---3-1-0-1-0-1-----------------|------------|
G|---------0-|-----2-|-------0-----------0------------------10-|-10---9-8-9-|
D|---------2-|-----1-|-----2--------------------------------7--|-7----------|
A|-----------|-------|-------------------0---------------------|------------|
E|-------0---|-0-2---|-2-3-------4------------------------7----|----0-------|

e|-10---|-8-4---5/8-8---|-7-2---3/7-7---5---3---2---0-----------------------|
B|----8-|-----3-------5-|-----------------5---4---4-0-----------------------|
G|----7-|-----5-------5-|-----3-------0---5---2-----0-----------------------|
D|------|---0-------5---|---------------4-------------2---------------------|
A|-0----|---------------|---3-------3-------2-----------2-------------------|
E|------|---------------|---------------------------0-----3-0---------------|

e|-----------|-------------------|---------------|---------7-5-3-2-3-|------|
B|-0-1-0-3---|---------3-1-0---0-|-0h1p0---0---0-|-0---0-4-----------|------|
G|---2-----5-|-5-----5-------3---|-------3-----2-|-2-----------------|------|
D|---------4-|-4---4-------------|-------------1-|-1-----------------|------|
A|-------5---|-------------------|-----------2---|-------------------|------|
E|-----------|---5-------3-------|---------------|---2-------0-------|------|

e|-0-0-2-3---|-----3-2-0-3---|-----3-2-0------------------------------------|
B|---------2-|-2---2-----2-2-|-2---2-----4-0-1---0---------0----------------|
G|---------3-|-3-----------3-|-3---------2-----2---0-2-----2----------------|
D|-----------|---------------|-------------------------1---1----------------|
A|-----------|---------------|-----------2---0-----------2------------------|
E|-------2---|---2-------2---|---2---------------3---2----------------------|

e|-3-2-0-----|-------|-----------0-------------7-5-7-8/10------|------------|
B|-------0---|-----0-|---------0---3-1-0-1-0-1-----------------|------------|
G|---------0-|-----2-|-------0-----------0------------------10-|-10---9-8-9-|
D|---------2-|-----1-|-----2--------------------------------7--|-7----------|
A|-----------|-------|-------------------0---------------------|------------|
E|-------0---|-0-2---|-2-3-------4------------------------7----|----0-------|

e|-10---|-8-4---5/8-8---|-7-2---3/7-7---5---3---2---0-----------------------|
B|----8-|-----3-------5-|-----------------5---4---4-0-----------------------|
G|----7-|-----5-------5-|-----3-------0---5---2-----0-----------------------|
D|------|---0-------5---|---------------4-------------2---------------------|
A|-0----|---------------|---3-------3-------2-----------2-------------------|
E|------|---------------|---------------------------0-----3-0---------------|

e|-0-0-|-------|---------------------|-----|-------|------------------------|
B|-0-0-|-----0-|---------------------|-----|-------|------------------------|
G|-0-0-|-----2-|-------0-----4---5-5-|-5-5-|---4-4-|-4-4-4-0----------------|
D|-2-2-|-----1-|-----2-------0---5-5-|-4-4-|---4-4-|-4-4-4-0----------------|
A|-2-2-|-------|---------------------|-5---|-------|------------------------|
E|-0-0-|-0-2---|-2/3-----3/4---4-5---|-----|-0-3---|-3-3-3------------------|

e|-----|-----|-------|-----|------------------------------------------------|
B|-----|-----|-------|-----|------------------------------------------------|
G|-5-5-|-5-5-|---4-4-|-4---|-0-2-3-3---2-2---0------------------------------|
D|-5-5-|-4-4-|---4-4-|-4-2-|-----2-2---1-1---2-2----------------------------|
A|-----|-5---|-------|-3---|---------0-2---0-----2--------------------------|
E|-5---|-----|-0-3---|-----|-----2-----------0-----3-0----------------------|

e|-------0---0-2-3p2-----2-----|-----------7---|---10---|-7\5-5---|---------|
B|-0-2-4---0---------5-4---5---|---6-5-4-5---5-|-5----7-|-------3-|-3-------|
G|---------------------------4-|-4-----------5-|-5----7-|-------4-|-4-------|
D|---------------------------3-|-3-------------|---0----|---------|---------|
A|-----------------------------|-----------0---|--------|---------|---------|
E|-------0-------2---------3---|---4-----------|--------|-----3---|---3-----|

e|-5-3-2-3---|---2-2/5-2-2---|---0-----------|---------------------7--------|
B|-3-------1-|-1-1-1/4-1---0-|-----3-1-0-2-2-|-2-----0---0---0-------10-8-7-|
G|-4-------0-|-0-2-2/5-2---0-|-----------3-3-|-3---3---3---2---2/8----------|
D|-----------|---0-0-0-0-----|---------------|------------------------------|
A|-------0---|---------------|-0-3-----------|-----------2------------------|
E|-----------|-----------3---|-----------2---|---2--------------------------|

e|-0---|---2h3p2-----2-3---|---4-5/7-7-8-8-|-8-8-8-|-8-7-7-|-7-7-7----------|
B|---0-|-0-------5-4-------|-----------5-5-|-5-7-7-|-7-0-0-|-0-0-0----------|
G|---0-|-0---------------4-|-4-4-5/7-7-----|-------|-------|-------0--------|
D|-----|-----------------3-|-3-------------|---0---|-------|----------------|
A|-----|-------------------|-----------0---|-------|-------|----------------|
E|-0---|---2-----------3---|---------------|-------|---3---|-3---3----------|

e|-5---|---3---|---------|---0---2---3---|---2h3p2-----2-0------------------|
B|---5-|-5---4-|-4-4/7-7-|-7-----------2-|-2-------5-4---0------------------|
G|---5-|-5---2-|-2-4/7-7-|-7---0---0---3-|-3-------------0------------------|
D|-4---|-------|---------|---------------|-----------------2----------------|
A|-----|---2---|---------|---3-----------|---2---------------2--------------|
E|-----|-------|---0-----|-----------2---|---------------0-----3-0----------|

e|-----------|-------------------|---------------|---------7-5-3-2-3-|------|
B|-0-1-0-3---|---------3-1-0---0-|-0h1p0---0---0-|-0---0-4-----------|------|
G|---2-----5-|-5-----5-------3---|-------3-----2-|-2-----------------|------|
D|---------4-|-4---4-------------|-------------1-|-1-----------------|------|
A|-------5---|-------------------|-----------2---|-------------------|------|
E|-----------|---5-------3-------|---------------|---2-------0-------|------|

e|-0-0-2-3---|-----3-2-0-3---|-----3-2-0------------------------------------|
B|---------2-|-2---2-----2-2-|-2---2-----4-0-1---0---------0----------------|
G|---------3-|-3-----------3-|-3---------2-----2---0-2-----2----------------|
D|-----------|---------------|-------------------------1---1----------------|
A|-----------|---------------|-----------2---0-----------2------------------|
E|-------2---|---2-------2---|---2---------------3---2----------------------|

e|-3-2-0-----|-------|-----------0-------------7-5-7-8/10------|------------|
B|-------0---|-----0-|---------0---3-1-0-1-0-1-----------------|------------|
G|---------0-|-----2-|-------0-----------0------------------10-|-10---9-8-9-|
D|---------2-|-----1-|-----2--------------------------------7--|-7----------|
A|-----------|-------|-------------------0---------------------|------------|
E|-------0---|-0-2---|-2-3-------4------------------------7----|----0-------|

e|-10---|-8-4---5/8-8---|-7-2---3/7-7---5---3---2---0-----------------------|
B|----8-|-----3-------5-|-----------------5---4---4-0-----------------------|
G|----7-|-----5-------5-|-----3-------0---5---2-----0-----------------------|
D|------|---0-------5---|---------------4-------------2---------------------|
A|-0----|---------------|---3-------3-------2-----------2-------------------|
E|------|---------------|---------------------------0-----3-0---------------|


e|-8/10-10-10-10---|-8-4---5/8-8---|-7-2---3/7-7---5---3---2---0------------|
B|---------------8-|-----3-------5-|-----------------5---4---4-0------------|
G|---------------7-|-----5-------5-|-----3-------0---5---2-----0------------|
D|-----------------|---0-------5---|---------------4-------------2----------|
A|------------0----|---------------|---3-------3-------2-----------2--------|
E|-----------------|---------------|---------------------------0-----3-0----|

e|-8/10-10-10-10---|-8-4---5/8-8---|-7-2---3/7-7---5---3---2---0---------5+-|
B|---------------8-|-----3-------5-|-----------------5---4---4-0---------5+-|
G|---------------7-|-----5-------5-|-----3-------0---5---2-----0---------5+-|
D|-----------------|---0-------5---|---------------4-------------2----------|
A|------------0----|---------------|---3-------3-------2-----------2--------|
E|-----------------|---------------|---------------------------0-----3-0----|


| /  slide up
| \  slide down
| h  hammer-on
| p  pull-off
| ~  vibrato
| +  harmonic
| x  Mute note
| |  Muted slap
Добавлено: 08.06.2012
Вам также может быть интересно:
Другие материалы по этой песне:

Страница создана 10.03.2012
http://primanota.ru/kotaro-oshio/twilight-chords.htm
Привет, Гость.
Предлагаем пройти революционный курс по гитаре.
Подарок от PrimaNota.Ru, забирай!