PrimaNota.ru - самый крупный в мире бесплатный архив песенных текстов, аккордов, табулатур и нот


Kotaro Oshio - Last Christmas - таба, видео

Регистрация Запомнить меня
Войти через:  Facebook Google Twitter Vk Yandex Mail.ru

Kotaro Oshio - Last Christmas - таба, видео

Печатать
Просмотров: 175
Last Christmas - Kotaro Oshio
Double Dropped D - DADGAD
BPM = 75 (Gradual Speed up, refer to video on Youtube for song)

D||--12----------12--L--------|--11---------11--L----7--9--|
B||--10------10---------------|--10-----10-----------7--8--|
G||--11--11-------------------|---9--9---------------------|
D||---------------------------|----------------------------|
A||---------------------------|----------------------------|
D||---0-----------------------|---0------------------------|


                        ^
   Q     E    Q    Q    E     E  E  E  E  Q    E  E
--10----10--7g9----7----5--|-----------5--L-------7--|
--10----10--7g8----7----3--|--------3----------8--7--|
------------------------4--|-----4-------------9-----|
---0-----------------------|--0----------------------|
---------------------------|-------------------------|
---------------------------|-------------------------|


  ^         ^                             ^
  E  E  E   E  E  E   Q        E  E  Q    E  E  E  E
--9--------12--------11S----|--7----------9--7--------|
--8-----8--12--------10-----|-------------7-----8--7--|
--7--7------------0---------|-----7--L----8-----------|
----------------------------|--0----------------------|
--7------------0------------|-------------------------|
----------------------------|-------------9-----------|


                                              Ritardando
                     NH   NH
  E  E  E    E  E    E    E   E      H        Q          Q
-----------7g9--L-----------------|---------------------------|
--8--------7g8--L-------<>7-------|--5------------------------|
--------7----------<>7-------(0)--|-----------7----------6----|
-----9----------------------------|---------------------------|
--7-------------------------------|--0------------------------|
----------------------------------|---------------------------|


  Q    E  E   E  Q    E     E  E    E  E   E  E  E  E
-------------------------|-----------------------------|
--5----L--5S--3--3-------|--5--5--5g7-----\3-----------|
-------------------------|-----------------------2-----|
--0----L--------------0--|-------------0------0-----0--|
-------------------------|-----------------------------|
-------------------------|-----------------------------|


  E  E    E   E   Q.     E     E  E  E  E  E  E  E   E
--2--2--2g4--(2)------------|-----------------------(0)--|
------------------3------3--|--2--3--2-------------------|
----------------------------|-----------4--------4-------|
----------------------------|-----------------4----------|
--2-----------2---2---------|--2-----------2-------------|
----------------------------|----------------------------|


  E  E  E  Q    E  E  E     E  E  E  E  E  E  E  E
--4--------2----------0--|--4--5--4--------------0--|
--------0----------0-----|-----------5--------0-----|
-----0----------0--------|-----------------0--------|
--2--------2-------------|--2-----------2-----------|
-------------------------|--------------------------|
-------------------------|--------------------------|


                                                         ^
  E  E  E  E  E  E   E     E     E  Q    Q    E  Q       Q    E  Q    Q    E
--0--0--0--0--0--0---0--------|-----------------------|--2-------2------------|
-------------------------1g2--|------------------2----|--2-------2----3-------|
--------0--0--0--0--(0)-------|-----2---------2-------|--2------------2-------|
-----2------------------------|----------2------------|-----------------------|
--0---------------------------|--0--------------------|-----------------------|
------------------------------|-----------------------|--0----0------------0--|


  E  E    E  E  E  E  E  E     E  E    E    E   E  E  E  E
--2--2--2g4-----------------|--2--2--2g4p--(2)--------------|
--2--2--2g3-----3-----------|--2--2--2g3p--(2)--3--------3--|
--2-------------2-----2-----|--2----------------2-----2-----|
-------------------4--------|----------------------4--------|
----------------------------|--2----------------2-----------|
-------------0-----------0--|-------------------------------|


  E  E  E  E  E  E  E  E     E  E  E  E  E  E  E  E
--------------------------|--4--------2--L-----------|
--2--3--2-----------------|-----------------------0--|
-----------4--------------|--------0-----------0-----|
--------------------------|-----2-----------2--------|
--2-----------4--5--4--2--|--------------------------|
--------------------------|--2-----------------------|


  E  E  E  E  E  E  E  E     E  E  E  E  E  E  E    E
--4--5--4--------------0--|--0--0--0--0--0--0--0-------|
-----------5--------------|-----------------------1g2--|
--------------------0-----|--------0--0--0--0--0--1g2--|
-----2-----------2--------|-----2-----------2----------|
--------------------------|--0-----------0-------------|
--2-----------2-----------|----------------------------|


  E  E  E  E  E  E  Q       Q    E  E  Q     E  E     E  E  E  E  E  E  E  E
-------------------------|-------------7\----------|--------------------------|
--------------------2----|-------x-----------------|--------x--------0--2--3--|
-----2--L--------2-------|--2----x--------------2--|--------x-----2-----------|
-----2--L-----2----------|----------0--------0-----|--------------------------|
--0--------0-------------|-------------------------|-----0--------------------|
-------------------------|--0----------------------|--0--------0--------------|


  E  E  E  E  E  E  E  E     E  E  E  E  E  E  E  E
--------0-----------------|--------------7--------0--|
--5--------2--0--------x--|-----------x-----7--------|
--------------------0--x--|--------4--x--------9-----|
-----0-----------0--------|-----4--------------------|
--2-----------2-----------|--2-----------------------|
--------------------------|--------------------------|


  E  E  E  E  E  E  E  E     E  E  E  E  E  E  E  E     Q    E  E  E  E  E  E
--------------0--------0--|-----------0--9-----------|-------------0-----------|
--------------------0--0--|--------0--------8--------|-------x-----------0-----|
--0--------0-----0--------|-----0--------------9--6--|-------x--6-----6--------|
--------2-----------------|--0-----------------------|--7-------------------7--|
-----2--------------------|--------------------------|--0----------0--------0--|
--2-----------------------|--------------------------|-------------------------|


  E  E  E   E   E   E   E   E      Q    E  E  E  E  E  E
--------------------------------|-------2-----2--0--x-----|
--------x--(0)--x--(0)--x--(0)--|-------------2--0--x-----|
--------x--(0)--x--(0)--x--(0)--|-------------2-----------|
--L--7-----(7)-----(7)-----(7)--|-------------------------|
--L--0--------------------------|-------------------------|
--------------------------------|--0-------0-----------0--|


  ^
  Q    E  E  E    E  E  E     E  E  E  E  E  E   E   E
--7---------------------0--|-----2--2--2--2--0----------|
--7----7--5-----5g7--5--0--|-----------0--0-----(0)-----|
--7----7--6-----6g7--6-----|--------------------(0)-----|
---------------------------|----------------------------|
---------------------------|--2--------2--2----------2--|
-------------0-------------|----------------------------|


  E  E  E  E  E  E  E  E     E  E  E  S S E  E  E  E
--9--9--9--------------0--|--------4----0-------------|
-----------7--------x-----|-----------0------5--x--0--|
-----------------9--x-----|---------------------x-----|
--------------------------|---------------------------|
--------------------------|-----2---------------------|
--------------9-----------|--2------------2-----------|


  E  E  E  S S E  E  E  E     E  E  E  E  E  E  E  E
--------4----0----------0--|-----------0--0--0--------|
-----------0------------0--|--------0--0--0--0-----0--|
---------------------0-----|--------0-----------0-----|
------------------2--------|-----2-----------2--------|
-----2---------------------|--0-----------0-----------|
--2------------2-----------|--------------------------|


                                     ^
  E  E  E  E  E  E  E  E     E  E    Q    E  E  E  E
--------------------------|--------<>7----------------|
-----2--x--0--------------|--------<>7----------------|
-----2--x--2--x--2--x--0--|--------<>7----2--2--x--2--|
--------------x--2--x--2--|--------<>7-------------4--|
--0-----------------------|-----0---------------------|
--------------------------|--0------------------------|


  E  E  E  E  E  E  E  E     E  E  E  E  E  E  E    E
-----------------------2--|--L--2-----------------2g4--|
-----------------------2--|--L--2--x-----2--3--x----3--|
--x--4--x--6--x--7--x-----|--------x-----2--4--x-------|
--x--5--x--7--x--9--x-----|----------------------------|
-----------------------2--|-----------2-------------2--|
--------------------------|----------------------------|


  E  E  E  E  E  E  E  E     E  E  E  E  E  E  E  E
--L--4--x--------------4--|-----------0-----------4--|
-----3--x-----------3--0--|--------0--3--------0--0--|
-----------------2-----0--|--------0--0--------0--0--|
--------------4-----------|-----0-----------2--------|
-----------2--------------|--------------------------|
--------------------------|--2-----------2-----------|


  E  E  E  E  E  E  E  E     E   E   E  E  E  E  E  E
-----------0-----------0--|-------------0--0--0--x-----|
--------3--3-----------3--|-----(0)--x--0--0--0--x--0--|
--------0--0--------0--0--|-----(0)--x--0--0--0--x--6--|
-----2-----------2--------|----------------------------|
--------------------------|-------------------------0--|
--2-----------2-----------|--7----------7--7-----------|


  E  E  E   E   E   E   E  E       Q    E  E  E  E  E  E
------------------------------||---2-------2--------------|
--------x--(0)--x--(0)--x-----||---2----x--2--x--3--x-----|
--L-----x--(6)--x--(6)--x-----||*--2----x--2--x--2--x-----|
-----7-----(7)-----(7)--------||*-------------x--4--------|
------------0-----------------||--------------------------|
---------------------------0--||---0-------0-----------0--|


  E  E    E  E  E  E  E   E      E  E    E  E  E  E  E  E
--2--2--2g4-------------------|--2--2--2g4-----------------|
--2--2--2g3-----3-----x--(3)--|--2--2--2g3-----3-----x--3--|
----------------2-----x--(2)--|----------------2-----x--2--|
----------------4-------------|----------------4-----------|
------------------------------|--2----------2-----2--------|
-------------0-----0----------|----------------------------|


  E  E  E   E   E   E   E   E      Q    E  E   E    E   E  E
--------------------------------|--4-------2---------------0--|
--2--3--x---3---x---3---x---0---|--0----x--0--(0)--(0)--x--0--|
--------x--(4)--x--(4)--x--(0)--|-------x-----(0)--(0)--x-----|
--------------------------------|-----------------------------|
--2---------2-------2-----------|-----------------------------|
--------------------------------|--2-------2------------------|


  E  E   E  E  E   E   E  E     E  E  E  E  E  E  E  E
--4--5p--4----------------0--|--0--0-----0--0--0--------|
--0------x--5--L--(0)--x--0--|--0--0--x--0--0--0--x-----|
---------x--------(0)--x-----|--------x--------0--x--6--|
-----------------------------|--------------------------|
-----------------------------|--------------------------|
--2---------2--L-------------|--7--------7--7-----------|


  E  E  E   E   E   E   E   E        E  E  E   E   E   E       Q
---------------------------------||---------------------------------|
-----2--x---2---x---2---x---2----||-----2--x---2---x---2---10g12----|
-----2--x--(2)--x--(2)--x--(2)--*||-----2--x--(2)--x--(2)-----------|
--------------------------------*||---------------------------------|
--0------------------------------||--0------------------------------|
---------------------------------||---------------------------------|


   ^
   Q     E    E   E   E   E   E     E  E   E   E  E   E  E   E
-----------------------------11--|--------12--11------------12--|
--10-----x--(10)-----10---x--10--|--------10--10-----10--x------|
--11-----x--(11)-----11---x------|-------------------11--x------|
---------------------------------|-----0------------------------|
---------------------------------|------------------------------|
---0--------------0--------------|--0-------------0-------------|


  E  E  E   E  E  E   E   E     E  E  E    E   E  E  E     E
-----------11----------------|--------------------------------|
---------------------10------|--------x--(10)--x--7--8--xg10--|
-------------------------11--|--------x--(11)--x--------------|
--------9--------------------|--------------------------------|
-----9------------9----------|-----9--------------------------|
--9------------9-------------|--9-----------------------------|


  E  E  E    E  E  E  E     E     E  E  E    E  E  E    E  E
-------------------------------|------------------------------|
-------------------7--8--xg10--|------------------------------|
--------7--7g9-----------------|--------7--7g9--------9g7--7--|
-----9-------------------------|-----9-------------9--9g7--7--|
--7-------------7--------------|--7-------------7-------------|
-------------------------------|------------------------------|


  E  E  E  E  E  E  E    E     E  E  E  E  E      E  E   E
----------------------------|-------------------------------|
----------------------------|-----7-----8-----10g12--L--10--|
--------7--6--------7--7g9--|-------------------------------|
-----7--7--7-----7----------|-------------------------------|
--0-----------0-------------|--0-----0-----0----------------|
----------------------------|-------------------------------|


                                                 ^
  E   E   E   E  E   E    E   E       E   E   E  E  E   E   E  E
--------------------11S--14--14S--|--11--11S--9--7--L--(7)-----2--|
-------------10-----10S--14--14S--|--10--10S--8--7--L--(7)--x--2--|
---------11-----------------------|--------------7--L--(7)--x-----|
-----12---------------------------|-------------------------------|
----------------------------------|-------------------------------|
--0--------------0----------------|-----------------0-------------|


  Q    E  E  E  E  E    E     E   E   E   E   E   E   E  E
----------------------2g4--|--L--(4)--x---4---L--(4)-----0--|
-------3-----2--3--x----2--|--L--(3)--x--(3)--L--(3)--x--0--|
-------------------x-------|--------------------------x-----|
---------------------------|--------------------------------|
--2-------2-------------2--|--L-----------2---L-------------|
---------------------------|-----------------------------2--|


                                     T     T
  E  E  E  E  E  E  E  E     Q       E     E  E   E   E   E
--L--0-----------------0--|--L----------<>12--L--(0)------0--|
--L--0--x--------x-----0--|--L----<>12--<>12--L--(0)--x---0--|
--------x--------x--------|-------<>12--<>12--L--(0)--x------|
--------------2-----------|-------<>12--<>12--L----------/7--|
--------------------------|------------------------------/7--|
--L--------2--------2--2--|--L---------------------------/7--|


              T     T           T           T     T     T
  E  E  E     E     E  E  E     E     E     E     E     E  E   E   E   E
--L--0-----------<>12--------<>12--|-----<>12--<>17--<>19--L--(0)-----(0)--|
--L--0--x--<>12--<>12-----0--<>12--|-----<>12--<>17--<>19--L--(0)--x--(0)--|
-----0--x--<>12--<>12--x--0--<>12--|--x--<>12--<>17--<>19--L--(0)--x--(0)--|
--L--------------------x-----<>12--|--x--------------<>19--L---------------|
--L--------------------------------|---------------------------------------|
--L--------------------------------|---------------------------------------|


  ^
  Q    E  E  E  E  E  E     E  E  E  E   E    E   E  E
--2----------------------|--2--------2--(2)--(2)--------|
--2----3-----2--3--x-----|--2--3--x--3--(3)--(3)--x-----|
--2----------------x-----|--2-----x---------------x-----|
--0----------------------|------------------------------|
--0----------------------|---------------------------2--|
--0-------0-----------0--|-----------0------------------|


  Q    E  E  E  E  E  E     E  E  E  E  E  E  E  E     E  E  E  E  E  E  E  E
--2----------------------|--2--------------------4--|--L--0-----0--L--0-----4--|
--2----3-----2--3--x-----|--2--3--x--3--x--3--x--0--|--L--0--x--0--L--0--x--0--|
--2----------------x-----|--2-----x-----x-----x--0--|--L-----x--0--L-----x--0--|
-------------------------|--------------------------|--------------------------|
--2-------2-----------2--|--2--------2--------------|--------------------------|
-------------------------|-----------------------2--|--L--------2--L--------2--|


                                          T     T       T     T
  E  E  E  E  E  E  E   E     E  E  E     E     Q       E     E
-----0------------------0--|--0--0--0--<>12--<>12----<>19--<>19--|
-----0--x--0-----0--x---0--|--0--0--0--<>12--<>12----<>19--<>19--|
--------x--0-----0--x------|--0--0--0--<>12--<>12----<>19--<>19--|
-----------------------/7--|-------------------------------------|
-----------------------/7--|-------------------------------------|
--2--------2--2--------/7--|-------------------------------------|


           T                        ^
  E  E     E  E  E  E  E   E        Q    E  E  E  E  E  E
--------<>12-------------------||---2-------2--------------|
--------<>12--0--0--0--x--(0)--||---2----x--2--x--3--x-----|
--------<>12--0--0--0--x--(0)--||*--2----x--2--x--2--x-----|
-----x-------------------------||*--0----------x--4--------|
--x--x-------------------------||---0----------------------|
--x----------------------------||---0-------0-----------0--|


  E  E    E  E  E  E  E   E      E  E    E  E  E  E  E  E
--2--2--2g4-------------------|--2--2--2g4-----------------|
--2--2--2g3--x--3-----x--(3)--|--2--2--2g3-----3-----x--3--|
-------------x--2-----x--(2)--|----------------2-----x--2--|
-------------x--4-------------|----------------4-----------|
------------------------------|--2----------2-----2--------|
-------------0-----0----------|----------------------------|


  E  E  E   E    E    E   E   E      Q    E  E   E    E   E  E
----------------------------------|--4-------2---------------0--|
--2--3--x---0---(x)---0---x---0---|--0----x--0--(0)--(0)--x--0--|
--------x--(4)--(x)--(4)--x--(0)--|-------x-----(0)--(0)--x-----|
----------------------------------|-----------------------------|
--2---------2---------2-----------|-----------------------------|
----------------------------------|--2-------2------------------|


  E  E  E  E  E   E   E  E     E  E  E  E  E  E  E  E
--4--5--4----------------0--|--0--0-----0--0--0--------|
--0-----x--5--L--(0)--x--0--|-----0--x--0--0--0--x-----|
--------x--------(0)--x-----|--------x--------0--x--0--|
----------------------------|--------------------------|
----------------------------|--------------------------|
--2--------2--L-------------|--7--------7--7-----------|


  E  E  E   E   E   E   E   E        E  E  E  E  E   E   E   E
---------------------------------||--4--5--4-----------------0--|
--------x--(0)--x--(0)--x--(0)---||--0-----x--5--L--(0)--x---0--|
-----2--x--(2)--x--(2)--x--(2)--*||--------x--------(0)--x------|
--------------------------------*||-------------------------/7--|
--0------------------------------||-------------------------/7--|
---------------------------------||--2--------2--L----------/7--|


                          T        T     T     T     T     T     T  T
  E  E  E  E  E  E  E     E        E     E     E     E     E     E  Q
--0--0-----0-----0-----<>12--|--<>12--<>12--<>12--<>12--<>12--<>12--0----|
--0--0--x--0--x--0--x--<>12--|--<>12--<>12--<>12--<>12--<>12--<>12--0----|
--------x-----x--0--x--<>12--|--<>12--<>12--<>12--<>12--<>12--<>12--0----|
-----------------------<>12--|--<>12--<>12--<>12--<>12--<>12--<>12--0----|
-----------------------------|-------------------------------------------|
--7--7-----------------------|-------------------------------------------|


  ^
  Q    E  E  E  E  E  E     E  E    E  E  E  E  E   E
--2-------2--------------|--2--2--2g4-------------------|
--2----x--2--x--3--x-----|--2--2--2g3--x--3-----x--(3)--|
--2----x--2--x--2--x-----|-------------x--2-----x--(2)--|
-------------x--4--------|-------------x--4-------------|
-------------------------|------------------------------|
--0-------0-----------0--|-------------0-----0----------|


  E  E    E  E  E  E  E  E     E  E  E   E    E    E   E   E
--2--2--2g4-----------------|----------------------------------|
--2--2--2g3-----3-----x--3--|--2--3--x---0---(x)---0---x---0---|
----------------2-----x--2--|--------x--(4)--(x)--(4)--x--(0)--|
----------------4-----------|----------------------------------|
--2----------2-----2--------|--2---------2---------2-----------|
----------------------------|----------------------------------|


  Q    E  E   E    E   E  E     E  E   E   E  E   E   E   E
--4-------2---------------0--|--4--5--(4)-----------------0--|
--0----x--0--(0)--(0)--x--0--|--0------x---5--L--(0)--x---0--|
-------x-----(0)--(0)--x-----|---------x---------(0)--x------|
-----------------------------|---------------------------/7--|
-----------------------------|---------------------------/7--|
--2-------2------------------|--2----------2--L----------/7--|


                          T
  E  E  E  E  E  E  E     E
--0--0-----0-----0-----<>12--|
--0--0--x--0--x--0--x--<>12--|
--------x-----x--0--x--<>12--|
-----------------------<>12--|
-----------------------------|
--7--7-----------------------|


     Freely
     T      T     T     T     T     T     T     T
     E      E     E     E     E     E     E     E
--<>12---<>12--<>12--<>12--<>12--<>12--<>12--<>12--|
--<>12---<>12--<>12--<>12--<>12--<>12--<>12--<>12--|
--<>12---<>12--<>12--<>12--<>12--<>12--<>12--<>12--|
--<>12---<>12--<>12--<>12--<>12--<>12--<>12--<>12--|
---------------------------------------------------|
---------------------------------------------------|


        NH    NH       NH       NH    NH
  E     E     E  E     E  E     E     E     W
--L--<>17--<>17-----<>19-----<>12--<>12--|--L----------------|
--L--<>17--<>17-----<>19-----<>12--<>12--|--L----------------|
--L--<>17--<>17--x--<>19--x--<>12--<>12--|--L----------------|
--L--<>17--<>17--x--<>19--x--<>12--<>12--|--L----------------|
-----------------------------------------|-------------------|
-----------------------------------------|-------------------|


    Q    E  Q    E   E   E     E  E    E  E   E  E  E  E
|---------------------------|-----------------------------|
|---5----L--5----3----------|--5--5--5g7-----\3-----------|
|*--------------------------|-----------------------2-----|
|*--0----L----------(0)--0--|-------------0------0-----0--|
|---------------------------|-----------------------------|
|---------------------------|-----------------------------|


  E  E    E   E   E  E  E  E     E  E  E  E  E  E  E   E
--2--2--2g4--(2)--------------|----------------------------|
------------------3--------3--|--2--3--2--0----------------|
------------------------------|--------------------4-------|
------------------------0-----|-----------------4----------|
--2------------------2--------|--2-----------2--------(0)--|
------------------------------|----------------------------|


  E  E  E  E  E  E  E  E     E  E  E  E  E  E  E  E
--4--------2--L--------0--|--4--5--4--------------0--|
--------0-----------0-----|-----------5--------0-----|
-----0-----------0--------|-----------------2--------|
--2--------2--L-----------|--2-----------2-----------|
--------------------------|--------------------------|
--------------------------|--------------------------|


  E  E  E  E  E  E  E    E     E  E  E  E  E   E    E    E
-----0--0--0--0--0--0-------|---------------------------------||
-----------------------1g2--|----------------------(2)--------||
--------0--------0----------|-----2-----------(2)------------*||
-----2--------2-------------|--------2-----2------------(0)--*||
--0--------0----------------|--0--------0---------------------||
----------------------------|---------------------------------||





Duration Legend
---------------
W - whole
H - half
Q - quarter
E - 8th
S - 16th
T - 32nd
X - 64th
. - note dotted
|-n-|  - n-tuplets


Tablature Legend
----------------
L - tied note
x - dead note
g - grace note
(n) - ghost note
> - accentuded note
NH - natural harmonic
AH - artificial harmonic
TH - tapped harmonic
SH - semi harmonic
PH - pitch harmonic
h - hammer on
p - pull off
b - bend
br - bendRelease
pb - preBend
pbr - preBendRelease
brb - bendReleaseBend
\n/ - tremolo bar dip
\n - tremolo bar dive
-/n - tremolo bar Release up
/n\ - tremolo bar inverted dip
/n - tremolo bar return
-\n - tremolo bar Release down
S - shift slide
s - legato slide
/ -  slide into from below or out of upwards
\ -  slide into from above or out of downwards
~ - vibrato
W - wide vibrato
tr - trill
TP - tremolo picking
T - tapping
S - slap
P - pop
< - fade in
^ - brush up
v - brush down
Добавлено: 07.04.2012
Другие материалы по этой песне:

Страница создана 07.04.2012
http://primanota.ru/kotaro-oshio/last-christmas-chords.htm
Привет, Гость.
Предлагаем пройти революционный курс по гитаре.
Подарок от PrimaNota.Ru, забирай!