PrimaNota.ru - самый крупный в мире бесплатный архив песенных текстов, аккордов, табулатур и нот


Kotaro Oshio - Fight - таба, видео

Регистрация Запомнить меня
Войти через:  Facebook Google Twitter Vk Yandex Mail.ru

Kotaro Oshio - Fight - таба, видео

Печатать
Просмотров: 180
Уроки эстрадного вокала в Санкт-Петербурге
Fight! - Kotaro Oshio - Be Happy
Standard Tuning
BPM = 125

                             Palm w/ Nail Atk                               
                             T                                                
     H        Q     Q        E                S  S S S S S S S S  S S S S  S  
E||-----------------------|--------------------------------------------------|
B||-----------------------|--------------------------------------------------|
G||-----------------------|------------------------x-x-----x-x------x-x------|
D||-----------------------|------------------------x-x-x-5-x-x------x-x------|
A||----------------12\----|-------------------5h-7-------------5h-7----------|
E||-----------------------|--0------------------------------------------5h-7-|


                 Palm w/ Nail Atk       
  T              T                T     
  E  S  S S S E  Q                Q     
---------------------------------------|
----------x-x----2----------------0----|
----------x-x----2----------------0----|
----------x-x----2----------------0----|
-----2h-4--------0----------------x----|
--0-----------3--x----------------3----|


  Palm w/ Nail Atk                                 
  T                                                
  E                S  S S S S S S S S  S S S S  S  
--------------------------------------------------|
--------------------------------------------------|
------------------------x-x-----x-x------x-x------|
------------------------x-x-x-5-x-x------x-x------|
-------------------5h-7-------------5h-7----------|
--0------------------------------------------5h-7-|


                 Palm w/ Nail Atk                                       
  T              T                T                 T                   
  E  S  S S S E  Q                Q         S  E  S E  E  E  E  E  S S  
---------------------------------------||---3p-0--0-L------------------|
----------x-x----2----------------0----||---3p-0--0-L------------------|
----------x-x----2----------------0----||*----------------x-----x----0-|
----------x-x----2----------------0----||*----------------x-----x----0-|
--0--2h-4--------0----------------x----||-----------------x-----x------|
--0-----------3--x----------------3----||---0-------0--3--5--5--3--3---|


                                        T                   
  S S E  S S E  E  E  S S E     S  E  S E  E  E  E  E  S S  
----------------------x-x----|--3p-0--0-L------------------|
------2--x-x-------8--x-x----|--3p-0--0-L------------------|
------2--x-x-------6--x-x----|----------------x-----x----0-|
----2----x-x-------7---------|----------------x-----x----0-|
-----------------------------|----------------x-----x------|
--2----------2--7---------0--|--0-------0--3--5--5--3--3---|


  S S E  S S E  E  E  S S E      E.   S E  E  E  E  E  S S  
-----------------------------|--10---12--------------------|
------2--x-x-------5--x-x----|--10---12--------------------|
------2--x-x-------6--x-x----|----------------x-----x----0-|
----2----x-x-------7--x-x----|----------------x-----x----0-|
-----------------------------|----------------x-----x------|
--2----------2--7---------0--|---0------0--3--5--5--3--3---|


                                        T                   
  S S E  S S E  E  E  S S E     S  E  S E  E  E  E  E  S S  
-----------------------------|--3p-0--0-L------------------|
------2--x-x-------8--x-x----|--3p-0--0-L------------------|
------2--x-x-------6--x-x----|----------------x-----x----0-|
----2----x-x-------7--x-x----|----------------x-----x----0-|
-----------------------------|----------------x-----x------|
--2----------2--7---------0--|--0-------0--3--5--5--3--3---|


                                 ^                       
  S S E  S S E  E.  S S S S S    Q    E  E  E  E  E  E   
----------------8---8---------|--3----3--3--3--3--3--3--|
------2--x-x----8---8-x-x-x-x-|--3----3--3--3--3--3--2--|
------2--x-x----8---8-x-x-x-x-|--0----0--0--0--0--0--0--|
----2----x-x----7---7-x-x-x-x-|--0----0--0--0--0--0--0--|
-------------x--8---8---------|--x----x--x--x--x--x--x--|
--2----------2--x---x---------|--3----3--3--3--3--3--3--|


  E  E  E  E  E  E  E  E     E  E  E  E  E  E  E  E     Q    E  E  E  E  E  E   
--L--3--3--3--3--3--3--3--|--L--3--3--3--3--3--3--3--|--L----3--3--L--3--3--3--|
--L--2--2--2--2--2--2--1--|--L--1--1--1--1--1--1--0--|--L----0--0--L--0--0--0--|
--L--0--0--0--0--0--0--0--|--L--0--0--0--0--0--0--0--|--L----0--0--L--0--0--0--|
--L--0--0--0--0--0--0--0--|--L--0--0--0--0--0--0--0--|--L----0--0--L--0--0--0--|
-----x--x--x--x--x--x--x--|-----x--x--x--x--x--x--x--|-------------------------|
--L--3--3--3--3--3--3--3--|--L--3--3--3--3--3--3--3--|--L----3--3--L--3--3--3--|


           v                          v               
  E  E  E  E  E  E  E  E     E  E  E  E  E  E  E  E   
--0--0--0--0--0--0--0--0--|--L--0--0--0--0--0--0--0--|
--0--0--0--0--0--0--0--0--|--L--0--0--0--0--0--0--0--|
--9--9--9--9--9--9--9--8--|--L--8--8--8--8--8--8--7--|
--7--7--7--7--7--7--7--7--|--L--7--7--7--7--7--7--7--|
--0--0--0--0--0--0--0--0--|--L--0--0--0--0--0--0--0--|
--------------------------|--------------------------|


                                    ^             
  E  E  E  E  E  E  E  E     Q      H.            
--L--0--0--0--0--0--0--0--|-------<>7------------|
--L--0--0--0--0--0--0--0--|-------<>7------------|
--L--7--7--7--7--7--7--6--|-------<>7------------|
--L--7--7--7--7--7--7--7--|-------<>7------------|
--L--0--0--0--0--0--0--0--|-------<>7------------|
--------------------------|-------<>7------------|


  ^                                         
  E   S  S S  S  S  S  S  S S  S S  S S  S  
-----10p-0-9p-0-12p-0-10p-0-9p-0-7p-0-9p-0-|
-----------x---------------------x---------|
-----------x---------------------x---------|
-------------------------------------------|
-------------------------------------------|
--0----------------------------------------|


  ^                                    
  E   S  S S  S  S  S  S  S S  S Q     
-----10p-0-9p-0-12p-0-10p-0-9p-0-7----|
-----------x---------------------0----|
-----------x---------------------9----|
---------------------------------0----|
--------------------------------------|
--0-----------------------------------|


  ^                                         
  E   S  S S  S  S  S  S  S S  S S  S S  S  
-----10p-0-9p-0-12p-0-10p-0-9p-0-7p-0-9p-0-|
-----------x---------------------x---------|
-----------x---------------------x---------|
-------------------------------------------|
-------------------------------------------|
--0----------------------------------------|


  ^                                                                 
  E   S  S S  S  S  S  S  S S  S Q       E  E  E  E  S S E  S S E   
-----10p-0-9p-0-12p-0-10p-0-9p-0-7----|----------------------------|
-----------x---------------------0----|--2--2--0--2------0------2--|
-----------x---------------------9----|--2--2--0--2------0------2--|
---------------------------------0----|--2--2--0--2------0------2--|
--------------------------------------|--0--0--x-----x-x-x--x-x-0--|
--0-----------------------------------|--------3-----x-x-3--x-x----|


                               T                                  
  S S E  S S E  S S E  Q       E  S  S S S S S S S S  S S S S  S  
----------------------------|------------------------------------|
------3------2------0--L----|------------------------------------|
------3------2------0--L----|----------x-x-----x-x------x-x------|
------3------2------0--L----|----------x-x-x-5-x-x------x-x------|
--x-x----x-x-0--x-x-x-------|-----5h-7-------------5h-7----------|
--x-x----x-x----x-x-3--L----|--0----------------------------5h-7-|


                 Palm w/ Nail Atk                                            
  T              T                T       T                                  
  E  S  S S S E  Q                Q       E  S  S S S S S S S S  S S S S  S  
---------------------------------------|------------------------------------|
----------x-x----2----------------0----|------------------------------------|
----------x-x----2----------------0----|----------x-x-----x-x------x-x------|
----------x-x----2----------------0----|----------x-x-x-5-x-x------x-x------|
-----2h-4--------0----------------x----|-----5h-7-------------5h-7----------|
--0-----------3--x----------------3----|--0----------------------------5h-7-|


                 Palm w/ Nail Atk                                         
  T              T                             ^                          
  E  S  S S S E  Q                Q            E  E  E   E   E  E  E  E   
----------------------------------------||----14--------10---L-----------|
----------x-x---------------------------||--<>12-------------------------|
----------x-x--------------------------*||--<>12-------------------------|
----------x-x--------------------------*||--<>12-------------------------|
-----2h-4-------------------------------||--<>12-------------------------|
--0-----------3--0----------------------||-----0--0--0---0---0--0--0--0--|


                                ^                        
   E  E  E  E  E  E  E  E       E  E  E  E  E  E  E  E   
---L-----------------------|---12--------9--L-----------|
---L-----------------------|--<>9-----------------------|
---L-----------------------|--<>9-----------------------|
---L-----------------------|--<>9-----------------------|
---L-----------------------|--<>9-----------------------|
---0--0--0--0--0--0--0--0--|----0--0--0--0--0--0--0--0--|


                               ^                        
  E  E  E  E  E  E  E  E       E  E  E  E  E  E  E  E   
--L-----------------------|----9--------5--L-----------|
--L-----------------------|--<>7-----------------------|
--L-----------------------|--<>7-----------------------|
--L-----------------------|--<>7-----------------------|
--L-----------------------|--<>7-----------------------|
--0--0--0--0--0--0--0--0--|----0--0--0--0--0--0--0--0--|


                               ^                        
  E  E  E  E  E  E  E  E       E  E  E  E  E  E  E  E   
--L-----------------------|----7-----------------------|
--L-----------------------|--<>5-----------------------|
--L-----------------------|--<>5-----------------------|
--L-----------------------|--<>5-----------------------|
--L-----------------------|--<>5-----------------------|
--0--0--0--0--0--0--0--0--|----0--0--0--0--0--0--0--0--|


                             T                                  
  E  E  E  E  E  E  E  E     E  S  S S S S S S S S  S S S S  S  
--L-----------------------|------------------------------------|
--L-----------------------|------------------------------------|
--L-----------------------|----------x-x-----x-x------x-x------|
--L-----------------------|----------x-x-x-5-x-x------x-x------|
--L-----------------------|-----5h-7-------------5h-7-x-x------|
--0--0--0--0--0--0--0--0--|--0----------------------------5h-7-|


                 Palm w/ Nail Atk                                            
  T              T                T       T                                  
  E  S  S S S E  Q                Q       E  S  S S S S S S S S  S S S S  S  
---------------------------------------|------------------------------------|
-----------------2----------------0----|------------------------------------|
----------x-x----2----------------0----|----------x-x-----x-x------x-x------|
----------x-x----2----------------0----|----------x-x-x-5-x-x------x-x------|
-----2h-4-x-x----0----------------x----|-----5h-7-------------5h-7----------|
--0-----------3--x----------------3----|--0----------------------------5h-7-|


                   Palm w/ Nail Atk                                        
  T                ^                ^       T                              
  E  S  S S S E    Q                Q       E  S  S S S S S S S S S E  E   
-----------------<>5--------------<>4----|--------------------------------|
-----------------<>5--------------<>4----|--------------------------------|
----------x-x----<>5--------------<>4----|----------x-x-----x-x--------x--|
----------x-x----<>5--------------<>4----|----------x-x-x-5-x-x-x-7-x-----|
-----2h-4-x-x----<>5--------------<>4----|-----5h-7-----------------------|
--0-----------3--<>5--------------<>4----|--0-----------------------------|


                                    T                                  
  S S S S S S S  S S S S  S Q       E  S  S S S S S S S S  S S S S  S  
---------------------------------|------------------------------------|
---------------------------------|------------------------------------|
--7-5-x-7-x-x--------------------|----------x-x-----x-x------x-x------|
--------------5h-7-x-x-----------|----------x-x-x-5-x-x------x-x------|
-----------------------5h-7-5----|-----5h-7-------------5h-7----------|
---------------------------------|--0----------------------------5h-7-|


  T             T                 T                                  
  E  S  S S E.  E  E   S   E.     E  S  S S S S S S S S  S S S S  S  
----------------------10h-12---|------------------------------------|
-------------------------------|------------------------------------|
----------x--------------------|----------x-x-----x-x------x-x------|
----------x--------------------|----------x-x-x-5-x-x------x-x------|
-----2h-4-x--------------------|-----5h-7-------------5h-7----------|
--0---------3---0--------------|--0----------------------------5h-7-|


            T.H. 14          T.H. 12                                     
  T                   TH     TH       T                                  
  E  S  S S E.        Q      Q        E  S  S S S S S S S S  S S S S  S  
-----------------------------------|------------------------------------|
--------------------<>2----<>0-----|------------------------------------|
--------------------<>2----<>0-----|----------x-x-----x-x------x-x------|
----------2---------<>2----<>0-----|----------x-x-x-5-x-x------x-x------|
-----2h-4-0---------<>0----<>x-----|-----5h-7-------------5h-7----------|
--0---------x---------x----<>3-----|--0----------------------------5h-7-|


    TH    TH    TH    TH    TH    TH     TH    
    S S   S S   S S   S S   S S   S S    Q     
----------------------------------------------|
----------------------------------------------|
---------------------------------------<>0----|
--<>0-5-<>0-7--------------------------<>0----|
--------------<>0-5-<>0-7-----5---------------|
--------------------------<>0---<>0-7S-<>3----|


                                                 T.H. 14          T.H. 12
  T                                    T                   TH     TH     
  E  S  S S S S S S S S  S S S S  S    E  S  S S E.        Q      Q      
------------------------------------|-----------------------------------|
------------------------------------|--------------------<>2----<>0-----|
----------x-x-----x-x------x-x------|--------------------<>2----<>0-----|
----------x-x-x-5-x-x------x-x------|----------2---------<>2----<>0-----|
-----5h-7-------------5h-7----------|-----2h-4-0---------<>0----<>x-----|
--0----------------------------5h-7-|--0---------x---------x----<>3-----|


    TH    TH    TH    TH    TH    TH    TH    TH   
    S S   S S   S S   S S   S S   S S   S S   S S  
--------------------------------------------------|
--------------------------------------------------|
--<>0-5-<>0---------<>0---------------------------|
--<>0-------7-<>0-5-------------<>0---------------|
--<>0-------------------7-<>0-5-----7-------<>0---|
--<>0---------------------------------<>0-5-----7-|


    TH    TH       TH   TH           
    S S   S S E    E    E  E  Q      
----------------------<>0----------||
----------------------<>0----------||
----------------------<>0----------||
--------<>0-----------<>0----------||
--<>0-5-----7-5-------<>7----------||
-----------------<>0--<>0----------||




Duration Legend
---------------
W - whole
H - half
Q - quarter
E - 8th
S - 16th
T - 32nd
X - 64th
. - note dotted
|-n-|  - n-tuplets


Tablature Legend
----------------
L - tied note
x - dead note
g - grace note
(n) - ghost note
> - accentuded note
NH - natural harmonic
AH - artificial harmonic
TH - tapped harmonic
SH - semi harmonic
PH - pitch harmonic
h - hammer on
p - pull off
b - bend
br - bendRelease
pb - preBend
pbr - preBendRelease
brb - bendReleaseBend
\n/ - tremolo bar dip
\n - tremolo bar dive
-/n - tremolo bar Release up
/n\ - tremolo bar inverted dip
/n - tremolo bar return
-\n - tremolo bar Release down
S - shift slide
s - legato slide
/ -  slide into from below or out of upwards
\ -  slide into from above or out of downwards
~ - vibrato
W - wide vibrato
tr - trill
TP - tremolo picking
T - tapping
S - slap
P - pop
< - fade in
^ - brush up
v - brush down
Добавлено: 23.06.2012
Другие материалы по этой песне:

Страница создана 06.04.2012
http://primanota.ru/kotaro-oshio/fight-chords.htm
Привет, Гость.
Предлагаем пройти революционный курс по гитаре.
Подарок от PrimaNota.Ru, забирай!