PrimaNota.ru - самый крупный в мире бесплатный архив песенных текстов, аккордов, табулатур и нот


Kotaro Oshio - Indigo Love - таба, видео

Регистрация Запомнить меня
Войти через:  Facebook Google Twitter Vk Yandex Mail.ru

Kotaro Oshio - Indigo Love - таба, видео

Печатать
Просмотров: 143
Уроки эстрадного вокала в Санкт-Петербурге
Indigo Love - Kotaro Oshio - Color of Life
Standard Tuning - EADGBE
BPM = 70

     E    E    E    E  E    E    Q       E    E    E    E  E    E    Q     
E||------------4----4--L----4---------|------------5----5--L----5---------|
B||-------2-------<>2--L---------2----|-------3-------<>3--L---------3----|
G||----------<>2----------<>2---------|----------<>4----------<>4---------|
D||-----<>2--------------------<>2----|-----<>5--------------------<>5----|
A||--0--------------------------------|--0--------------------------------|
E||-----------------------------------|-----------------------------------|


  E    E    E    E  E    E    Q       E    E    E    E  E    E    Q     
------------4----4--L----4---------|------------5----5--L----5---------|
-------2-------<>2--L---------2----|-------3-------<>3--L---------3----|
----------<>2----------<>2---------|----------<>4----------<>4---------|
-----<>2--------------------<>2----|-----<>5--------------------<>5----|
--0--------------------------------|--0--------------------------------|
-----------------------------------|-----------------------------------|


  E  E  Q    E  E    E  E     E  E  E  E  E  E  E  E   
-------------------0g2-----|--0-----------------------|
--2----------3----------0--|--------2-----------------|
--------2-------0----------|--------2-----------2-----|
-----2----------2----------|-----2-----2--L--2-----2--|
--0------------------------|--0-----------------------|
-------------0-------------|--------------0-----------|


  E  E  E  E  E  E    E  E     E  E  E  E  E  E  E  E   
--------------------0g2-----|--0--------------------0--|
--2-----------3----------0--|--------2-----3--2--3-----|
--------2--------0----------|--------2-----0-----0-----|
-----2-----2-----2----------|-----2-----0--------------|
--0-------------------------|--0-----------0-----------|
--------------0-------------|--------------------------|


  E  E  E  E  E  E    E  E     E  E  E  E  E  E  Q     
--2-----------------0g2-----|--0-----------------0----|
--------2-----0----------0--|-------------------------|
-----2-----2-----2----------|--------1-----2----------|
--0-----------0-------------|-----2-----------2-------|
----------------------------|--4----------------------|
----------------------------|--------------2----------|


  E  E  E  E  E  E    E  E     E  E  E  E  H         
--0-------------------------|-----------------------|
--------3-----------0g2-----|--0--------------------|
-----2-----2--L--2-------0--|--------2-----1--------|
-----------------2----------|-----2-----2-----------|
--2-----------2-------------|-----------------------|
----------------------------|--0-----------0--------|


  E  E  E  E  E  E    E  E     E  E  E  E  E  E  E  E   
--------------------0g2-----|--0-----------------------|
--2-----------3----------0--|--------2-----------------|
--------2--------0----------|--------2-----------2-----|
-----2-----2-----2----------|-----2-----2--L--2-----2--|
--0-------------------------|--0-----------------------|
--------------0-------------|--------------0-----------|


  E  E  E  E  E  E    E  E     E  Q    E  E  E  E  E   
--------------------0g2-----|--0-------------------0--|
--2-----------3----------0--|-------------3--2--3-----|
--------2--------0----------|-------------0-----0-----|
-----2-----2-----2----------|-----2----2--L-----------|
--0-------------------------|--0----------0-----------|
--------------0-------------|-------------------------|


  E  E  E  E  E  E    E  E     E  E  E  E  E  E  E  E   
--2-----------------0g2-----|--0-----------------0-----|
--------2-----0----------0--|-----------------------0--|
-----2-----2-----2----------|--------1-----------------|
--0-----------0-------------|-----2-----------2--------|
----------------------------|--4--------0--------------|
----------------------------|--------------2-----------|


  E  E  E  E    E  E  E  E     E  E  E  E  H         
--0-------------------------|-----------------------|
--------3-----0g2-----0-----|--------2--------------|
-----2-----2-------1-----0--|--2-----------2--------|
-------------------2--------|-----2-----2-----------|
--2-------------------------|--0--------------------|
----------------0-----------|-----------------------|


  E  E  E  E  E  E  E    E     E  E  E  E  E  E  E  E    
--------------4-------------|---------------------------|
--7--------------------6g7--|--7-----5------------------|
--------6-----------5-------|-----4-----4--L-----4------|
-----7-----------4----------|-----6-----------6-----6\--|
--6--------0----------------|--4-----------4------------|
--------------4-------------|---------------------------|


  E  E  E  E  E  E  E  E     Q    Q    E  E  E  E     E  E  E  E  E  E  E  E   
--------------0-----------|------------------------|--------------------------|
--3--------------------3--|--3----2----L--------0--|--2-----0--2-----------2--|
--------2-----------------|------------------2-----|--------------2-----2-----|
-----4-----4--------4-----|--4----2----L--2--------|-----1-----------1--------|
--2--------------2--------|--0---------0-----------|--2-----------2-----------|
--------------0-----------|------------------------|--------------------------|


  Q    Q    E  E  Q       E  E  E  E  E  E  E  E     E  E  E  E  Q    E  E   
--2--------------------|--------------------------|-------------------------|
-------2----0----------|--0-----------------------|--------------0----------|
-------2----------2----|-----------2--L--------2--|--1--------1-------9--7--|
---------------1-------|--------0-----------0-----|--------0----------------|
--2---------2----------|-----2-----------2--------|-----2-------------------|
-----------------------|--0-----------0-----------|--0----------------------|


  E  E  E  E    E  E  E  E      E  E   E   E    E  E   E  E   
--------0-----4g5-----4------|-----4S--5S--7----9---------9--|
-----------0----6--------6S--|--7--5---7S--9S--10-----10-----|
--6-----6-------4--4---------|--7------------------9---------|
-----7-----------------------|--0----------------------------|
--0-------------4------------|------------------0------------|
-----------------------------|---------0---------------------|


  E  E  E   E   E  E  E   E       E  E  E  E  E   E  E  E   
--9--7--7--------------------|--7g9-----7------------------|
-----------10--10-----7--10--|-------7-----7--L--10--9--7--|
--------8----------8---------|-------7-----7--L------------|
-----7-------------7---------|-----------------------------|
-----------------------------|-----------------------------|
--7-------------7------------|----0-----------0------------|


                               ^                             
  E  E  Q      E  E  E  E      E  E   E   E    E  E   E  E   
--0----------4g5-----4------|-----4S--5S--7----9---------9--|
--------0------6--------6S--|--7--5---7S--9S--10-----10-----|
--------6------4--4---------|--7------------------9---------|
-----7----------------------|--0----------------------------|
--0------------4------------|------------------0------------|
----------------------------|---------0---------------------|


  E  E  E   E   E  E  E   E       E  E  E  E  Q    E  E   
--9--7--7--------------------|--7g9-----7----------5--4--|
-----------10--10-----7--10--|-------7-----7--L----------|
--------8----------8---------|-------7-----7--L----------|
-----7-------------7---------|---------------------------|
-----------------------------|---------------------------|
--7-------------7------------|----0-----------0----------|


  E  E  E  E  E  E  E  E     W                   E  E  E  E  E  E    E  E   
--5--------5--------5-----|--5----------------|--------------------0g2-----|
--------5--------5-----5--|--5----------------|--2-----------3----------0--|
-----7--------7-----------|--7----------------|--------2--------0----------|
--0-----------------------|--0----------------|-----2-----2-----2----------|
--------------------------|-------------------|--0-------------------------|
--------------------------|-------------------|--------------0-------------|


  E  E  E  E  E  E  E  E     E  E  E  E  E  E    E  E   
--0-----------------------|--------------------0g2-----|
--------2-----------------|--2-----------3----------0--|
--------2-----------2-----|--------2--------0----------|
-----2-----2--L--2-----2--|-----2-----2-----2----------|
--0-----------------------|--0-------------------------|
--------------0-----------|--------------0-------------|


  E  E  E  E  E  E  E  E     E  E  E  E  E  E    Q     
--0--------------------0--|--2-----------------0g2----|
--------2-----3--2--3-----|--------2-----0------------|
--------2-----0-----0-----|-----2-----2-----2---------|
-----2-----2--L-----------|--0-----------0------------|
--0-----------0-----------|---------------------------|
--------------------------|---------------------------|


  E  E  E  E  E  E  E  E     E  E  E  E    E  E  E  E     E  E  E  E  H         
--0-----------------0-----|--0-------------------------|-----------------------|
-----------------------0--|--------3-----0g2-----0-----|--------2--------------|
--------1-----2-----------|-----2-----2-------1-----0--|--2-----------2--------|
-----2--------2--2--------|-------------------2--------|-----2-----2-----------|
--4--------0--------------|--2-------------------------|--0--------------------|
--------------2-----------|----------------0-----------|-----------------------|


  E  E  Q    E  E  E    E     E  E  E  E  E  E  E  E    
-------------4-------------|---------------------------|
--7-------------------6g7--|--7-----5------------------|
--------6----------5-------|-----4-----4--L-----4------|
-----7----------4----------|-----6-----------6-----6\--|
--6------------------------|--4-----------4------------|
-------------4-------------|---------------------------|


  E  E  E  E  E  E  E  E     E  E  Q    E  E  E  E     E  E  E  E  E  E  E  E   
--------------0-----------|-------------------------|--------------------------|
--3--------------------3--|--3-----2----L--------0--|--2-----0--2-----------2--|
--------2-----------------|-------------------2-----|--------------2-----2-----|
-----4-----4--------4-----|--4-----2----L--2--------|-----1-----------1--------|
--2--------------2--------|--0--0-------0-----------|--2-----------2-----------|
--------------0-----------|-------------------------|--------------------------|


  E  E  E  E  E  E  Q       E  E  E  E  E  E  E  E     E  E  E  E  Q    E  E   
--2----------------------|--------------------------|-------------------------|
--------2-----0----------|--0-----------------------|--------------0----------|
--------------------2----|-----------2--L--------2--|--1--------1-------9--7--|
-----1-----1-----1-------|--------0-----------0-----|--------0----------------|
--2----------------------|-----2-----------2--------|-----2-------------------|
-------------------------|--0-----------0-----------|--0----------------------|


  E  E  E  E    E  E  E  E      E  E   E   E    E  E   E  E   
--------0-----4g5-----4------|-----4S--5S--7----9---------9--|
-----------0----6--------6S--|--7--5---7S--9S--10-----10-----|
--6-----6-------4--4---------|--7------------------9---------|
-----7-----------------------|--0----------------------------|
--0-------------4------------|------------------0------------|
-----------------------------|---------0---------------------|


  E  E  E   E   E  E  E   E       E  E  E  E  E   E  E  E   
--9--7--7--------------------|--7g9-----7------------------|
-----------10--10-----7--10--|-------7--7--7--L--10--9--7--|
--------8----------8---------|-------7-----7--L------------|
-----7-------------7---------|-----------------------------|
-----------------------------|-----------------------------|
--7-------------7------------|----0-----------0------------|


                                ^                             
  E  E  E  E    E  E  E  E      E  E   E   E    E  E   E  E   
--0-----0-----4g5-----4------|-----4S--5S--7----9---------9--|
----------------6--------6S--|--7--5---7S--9S--10-----10-----|
-----6-----0----4--4---------|--7------------------9---------|
-----7-----------------------|--0----------------------------|
--0-------------4------------|------------------0------------|
-----------------------------|---------0---------------------|


  E  E  E   E   E  E  E   E       E  E  E  E  E  E  E  E   
--9--7--7--------------------|--7g9-----7-----------5--4--|
-----------10--10-----7--10--|-------7-----7--L--0--------|
--------8----------8---------|-------7-----7--L-----------|
-----7-------------7---------|----------------------------|
-----------------------------|----------------------------|
--7-------------7------------|----0-----------------------|


  E  E  E  E  E  E   E  E     E  E  E  E  E  E  Q     
--5--------9--L--7S--5--5--|--4-----------------0----|
--------7------------------|--------0--------0-------|
-----6---------------------|-----6-----6--L----------|
--0-----------0------------|-------------------------|
---------------------------|--0----------------------|
---------------------------|-------------------------|


  E    E    E    E  E    E    E    E     E  E  E  E  E  E  E  E   
--2---------2----2--L----2----0-------|--0--------------------0--|
--0----0---------------------------0--|--------2--------2--3-----|
--0------------<>0-----<>0------------|--------1--------1--------|
----------<>0---------------<>0-------|-----2-----2--L--2--------|
-----<>0-------------------------<>0--|--0-----------------------|
--3-----------------------------------|--------------------------|


  E  E  E   E  E  E  E   E       E  E  E  E  E   E   E   E   
------------9--L--7--9--10S--|--12--------------12--12--12--|
--7--------10--L-------------|---------9--------------------|
--6--6-----------------------|---------9-------------9------|
--0------------0-------------|------9-----9--L---9----------|
-----------------------------|------------------------------|
-----------------------------|---9-----------9--------------|


   E   E  E   E   E  E    Q       E  E  Q    E  E  E  E   
--12---------10--10-----7g9----|--7----------5-----4-----|
----------0----------0---------|--------0----3--------3--|
------11-----------------------|-----7-------4-----4-----|
---9--------------9------------|----------------3--------|
-------------------------------|-------------------------|
-------------------------------|--0----------0-----------|


  E  E  E  E    E  E  E  E      E  E   E   E    E  E   E  E   
--0-----------4g5-----4------|-----4S--5S--7----9---------9--|
--------0-------6--------6S--|--7--5---7S--9S--10-----10-----|
--------6--0----4--4---------|--7------------------9---------|
-----7-----------------------|--0----------------------------|
--0-------------4------------|------------------0------------|
-----------------------------|---------0---------------------|


  E  E  E   E   E  E  E   E       E  E  E  E  E   E  E  E   
--9--7--7--------------------|--7g9-----7------------------|
-----------10--10-----7--10--|-------7-----7--L--10--9--7--|
--------8----------8---------|-------7-----7--L------------|
-----7-------------7---------|-----------------------------|
-----------------------------|-----------------------------|
--7-------------7------------|----0-----------0------------|


  E  E  E  E    E  E  E  E      E  E   E   E    E  E   E  E   
--0-----------4g5-----4------|-----4S--5S--7----9---------9--|
--------0-------6--------6S--|--7--5---7S--9S--10-----10-----|
--------6--0----4--4---------|--7------------------9---------|
-----7-----------------------|--0----------------------------|
--0-------------4------------|------------------0------------|
-----------------------------|---------0---------------------|


  E  E  E   E   E  E  E   E       E  E  E  E  E  E  E   S S  
--9--7--7--------------------|--7g9-----7-----5-----4S----5-|
-----------10--10-----7--10--|-------7-----------0------0---|
--------8----------8---------|-------7-----7----------------|
-----7-------------7---------|------------------------------|
-----------------------------|------------------------------|
--7-------------7------------|----0-------------------------|


  E  E  E  E  E  E   E   E      W                  
--5--------------4S--5S--7--|---9----------------||
--------0-----7--5---7S--9--|--10----------------||
--------6-----7-------------|---9----------------||
-----7-----7--0-------------|--------------------||
--0-------------------------|---0----------------||
---------------------0------|--------------------||




Duration Legend
---------------
W - whole
H - half
Q - quarter
E - 8th
S - 16th
T - 32nd
X - 64th
. - note dotted
|-n-|  - n-tuplets


Tablature Legend
----------------
L - tied note
x - dead note
g - grace note
(n) - ghost note
> - accentuded note
NH - natural harmonic
AH - artificial harmonic
TH - tapped harmonic
SH - semi harmonic
PH - pitch harmonic
h - hammer on
p - pull off
b - bend
br - bendRelease
pb - preBend
pbr - preBendRelease
brb - bendReleaseBend
\n/ - tremolo bar dip
\n - tremolo bar dive
-/n - tremolo bar Release up
/n\ - tremolo bar inverted dip
/n - tremolo bar return
-\n - tremolo bar Release down
S - shift slide
s - legato slide
/ -  slide into from below or out of upwards
\ -  slide into from above or out of downwards
~ - vibrato
W - wide vibrato
tr - trill
TP - tremolo picking
T - tapping
S - slap
P - pop
< - fade in
^ - brush up
v - brush down
Добавлено: 18.06.2012
Другие материалы по этой песне:

Страница создана 24.03.2012
http://primanota.ru/kotaro-oshio/indigo-love-chords.htm
Привет, Гость.
Предлагаем пройти революционный курс по гитаре.
Подарок от PrimaNota.Ru, забирай!