PrimaNota.ru - самый крупный в мире бесплатный архив песенных текстов, аккордов, табулатур и нот


Kotaro Oshio - Look Up At The Evening Stars - таба, видео

Регистрация Запомнить меня
Войти через:  Facebook Google Twitter Vk Yandex Mail.ru

Kotaro Oshio - Look Up At The Evening Stars - таба, видео

Печатать
Просмотров: 174
Look Up at the Evening Stars - Kotaro Oshio - Be Happy
Standard Tuning - EADGBE
BPM = 120

     Gmaj7                                  
                         NH       NH    NH  
     E     E  E    E     E  E     E     E   
E||--------------<>3-----------------<>12--|
B||-------------------<>19-----------------|
G||-----------0----------------<>19--------|
D||--------0----------------0--------------|
A||----------------------------------------|
E||--3----------------------------------L--|


  Cmaj7                                    
           NH    NH    NH              NH  
  E        E     E     E  E    Q       E   
--L---------------------------------------|
--------------------<>12--L---------------|
--------------<>12-----------<>2----<>12--|
--------<>12------------------------------|
--3---------------------------------------|
------------------------------------------|


  Gmaj7                                  
                      NH       NH    NH  
  E     E  E    E     E  E     E     E   
--------------<>3-----------------<>12--|
-------------------<>19-----------------|
--L--------0----------------<>19--------|
--------0----------------0--------------|
----------------------------------------|
--3-------------------------------------|


  Cmaj7                                       Cmaj7        D7    
           NH    NH    NH         NH    NH                       
  E        E     E     E  Q       E     E     H.           Q     
--L----------------------------------<>19--|--L-----------------|
--------------------<>12--L----<>19--------|---------------3----|
--------------<>12-------------------------|--------------------|
--------<>12-------------------------------|---------------4----|
--3----------------------------------------|--L-----------------|
-------------------------------------------|--------------------|


                                                    2x         
    G                            E7sus4         E7             
          ^        ^                                           
    E  E  E  E  E  E  E  E       E     E  E  E  E   E   E  E   
|---7--------7--7-----7--8S--|--10----------------------8--7--|
|---------0--------0---------|------------0--------(0)--------|
|*--------0--------0---------|--------------------------------|
|*-----0---------------------|---------7-----7--6-------------|
|----------------------------|--------------------------------|
|---3-----------3------------|---0----------------------------|


  Am           Ammaj7             Am7          Am6            
                                               ^              
  E  E   E  E  E      E  E  E     E   E  E  E  Q     E   E    
--8---------8--8------------7--|--8-----------------12--10S--|
--------10---------------9-----|---------8-----7-------------|
-----9----------------8--------|------9-----9--9-------------|
-------------------------------|-----------------------------|
--0------------0---------------|--0--------------------------|
-------------------------------|-----------------------------|


  D7          D7             G                      
  E  E  E  E  E  E  E  E     E  E  E  E  Q    Q     
--8--------8--5-----6-----|--7-----------7---------|
--------7--------7-----7--|-----8-----8------------|
-----9--------------------|--0-----7----------7----|
--0-----------0-----------|------------------------|
--------------------------|------------------------|
--------------------------|------------------------|


                                        2x           2x            
  D7                           G(on D)                             
  E  E  E  E   E  E  E   E     E        E   E  E     E   E  E  E   
--5--5--5--7S--8--8--8--10--|--7------------------0g(7)--3--3--2--|
----------------------------|---------------0---------------------|
--5--5--5--7S--8--8--8------|----------(0)-----0------------------|
--0------------0------------|--0---------------------L------------|
----------------------------|-------------------------------------|
----------------------------|-------------------------------------|


  E7                           Am            Am7           
  E  E  E  E   E  E  E  E      E   E  E   E  E   E  E  E   
--0-----------12-----7--8--|--10---------10--8------------|
-----------0------0--------|----------8-------------8-----|
--------1------------------|----------9-------------8-----|
--------4------------------|------10-------------7-----7--|
-----2--------11-----------|---0-------------0------------|
--0------------------0-----|------------------------------|


  G           D7             G                D         G                F#    
  E  E  E  E  E  E  E  E     E  E  E  E  Q    Q         E  E  E  E  Q    Q     
-----------7--5--------3--|--3----------------------||--3-----------3----2----|
--7-----8-----------4-----|--------0--0--L----3-----||-----------0------------|
-----7-----------5--------|------------------------*||--------0----------3----|
--0-----------0-----------|-----0-------------4----*||-----0------------------|
--------------------------|-------------------------||------------------------|
--------------------------|--3----------------------||--3----------------2----|


  Bm7                          A                          
  E   E  E  E   E  E  E  E     E  E  Q     E   E  E   E   
---------7--9--10-----------|--9-----9-------------------|
--7---7---------------7-----|-------------10-------------|
---------7------------7-----|-----9---------------9------|
------7------------7-----7--|-----------------11-----11--|
----------------------------|--0-----------0-------------|
--7-------------7-----------|----------------------------|


  Bm7                          A                          
  E   E  E  E   E  E  E  E     E  E  Q     E   E  E   E   
---------7--9--10-----------|--9-----9-------------------|
--7---7---------------7-----|-------------10-------------|
---------7------------7-----|-----9---------------9------|
------7------------7-----7--|-----------------11-----11--|
----------------------------|--0-----------0-------------|
--7-------------7-----------|----------------------------|


  Bm                          A             E              
                                            ^              
  E  E  E  E   E  E  E  E     E  E  E   E   E   E  E   E   
--------7--9--10-----------|--9--9--9--10--12--10--9------|
--7--7---------------7-----|----------------9---------12--|
--------7------------7-----|-----9----------9-------------|
-----7------------7-----7--|------------------------------|
---------------------------|--0---------------------------|
--7------------7-----------|----------------0-------------|


   A              Asus4               D7           Am7(on D)                 
   E   E  E   E   E     E  E   E      E   E  E  E  E         E    S S   S S  
----------------------------------|--10------8--7--5---------5------5-------|
--10---------10--10-----------10--|---------------------------------------5-|
----------9----------------9------|------11--9--7---------------<>5---------|
------11---------------12---------|---0-------------------------------<>5---|
---0--------------0---------------|----------------5------------------------|
----------------------------------|-----------------------------------------|


                                 D       G                                 
    S S   S S   S S   S S   Q    Q       S S S S S S S S S S S S S  S S S  
------------5-----5-----5-<>5---------|--7-----------7---7-------7S---8---|
------5-------------<>5----------3----|----------0-----0-----0------0---0-|
--------------<>5---------------------|------0-----------------0----------|
--------<>5----------------------4----|----0---0---0-------0--------------|
--<>5---------------------------------|-----------------------------------|
--------------------------------------|--3---------------3----------------|


   E7                                   Am               Ammaj7                
   S S  S S S  S  E  S S S S S S S S    S  S S S S S S S S      S S S S S S S  
--10-------------10--7-------8---7---|--8------------8---8----------------7---|
------------9------------------0---0-|-----------5-----5--------------5-----5-|
-------10-----10---------7-----------|-------5-----5--------------5-----5-----|
-----9----9------------6---6---------|-----7---7----------------6---6---------|
-------------------------------------|--0----------------0--------------------|
---0-----------------0---------------|----------------------------------------|


  Am7               Am6                  
  S   S S S S S S S S   S S S  S S  S S  
--8-------------8-------------12---10---|
------------5-----5-------7------0----0-|
--------5-----5---------5---5-----------|
------5---5-----------------------------|
--0-----------------0-------------------|
----------------------------------------|


  D7               D       D(+5)        
  S  S S S S S S S S S S S S     S S S  
--8------------8---5-------6-----------|
-------7---7-----0-----7-----------7---|
-----9---9---9-------7---7-------7---7-|
--0----------------0-------------------|
---------------------------------------|
---------------------------------------|


  G (on D)                                  D7                                 
  S        S S S S S S S S S S S S S S S    S  S S S S S S S S S S S S S  S S  
--7--------------------------0-----------|--5----5---5---7---8---8---8---10---|
-------------0---0---0-------0---3---3---|------------------------------------|
-----------0---0---0---0-L-0---0---5---5-|-----5---5---5---7---8---8---8----0-|
--0----------------------0---------------|--0----------------0----------------|
-----------------------------------------|------------------------------------|
-----------------------------------------|------------------------------------|


  G (on D)               G                  E7                               
  S        S S S S S S S S S S S S S S S    S  S S S S S S S  E  E  S S S S  
--7------------------0-------3---3---2---|--0------------0---12-----7---8---|
-------------0---0---------------------0-|-----------0-----0-----0----0---0-|
-----------0---0---0---0-L---------------|---------1---4--------------------|
--0------------------------0---0---0-----|-------4--------------------------|
-----------------------------------------|-----2-------------11-------------|
-------------------------3---------------|--0-----------------------0-------|


   Am                 Am7                
   S  S S  S S S  S S S   S S S S S S S  
--10-------------10---8-------------8---|
-------------8------0-----------8-----8-|
--------9------9------------8-----8-----|
-----10---10--------------7---7---------|
---0------------------0-----------------|
----------------------------------------|


  G (on D)              D7                  G                                
  S        S S S S S E  S  S S S S S S S    S S S S S S S S S S S S S S S S  
--7------------------7--5--------5-------|--3-------------------3---3---2---|
-------------8---8-----------4-------4---|----------1-------0-------------0-|
-----------7---7---7-------5---5---5---0-|------0-------0---------0---0-----|
--0---------------------0----------------|----0---0---0---0---0-------------|
-----------------------------------------|----------------------------------|
-----------------------------------------|--3-------------------------------|


  E7                                  Am                                        
  S  S S S S S S S  E  E  S S S S     S  S S  S S S  S S S S S S S   S   S   S  
--0------------0---12-----7---8---|--10-------------10---8-------8---------<>8-|
-----------0-----0-----0----0---0-|-------------8------0-------8-------<>8-----|
---------1---1--------------------|--------9------9----------8-----<>8---------|
-------4--------------------------|-----10---10------------7-------------------|
-----2-------------11-------------|---0------------------0---------------------|
--0-----------------------0-------|--------------------------------------------|


                        G (on D)          D7           
    W                   E        E  E  E  E  E  E  E   
--<>L----------------|--7-----------------5-----------|
---------------------|--------------8-----------4-----|
---------------------|-----------7-----0-----5-----5--|
---------------------|--0-----------------0-----------|
----L----------------|--------------------------------|
---------------------|--------------------------------|


  G (on D)          Cmmaj7              G/B    F# (on A#)     G          
                                                              ^          
  E        E  E  E  E      E  E  E      E  E   E          E   H          
--3-----------------7---------8-----|--10-----14-------------15--------||
--------------0------------------0--|------8-------------14--12--------||
-----------------0---------8--------|-------------------------0--------||
-----------0------------------------|---9------------------------------||
------------------------------------|---------13-----------------------||
--3-----------------8---------------|----------------------------------||




Duration Legend
---------------
W - whole
H - half
Q - quarter
E - 8th
S - 16th
T - 32nd
X - 64th
. - note dotted
|-n-|  - n-tuplets


Tablature Legend
----------------
L - tied note
x - dead note
g - grace note
(n) - ghost note
> - accentuded note
NH - natural harmonic
AH - artificial harmonic
TH - tapped harmonic
SH - semi harmonic
PH - pitch harmonic
h - hammer on
p - pull off
b - bend
br - bendRelease
pb - preBend
pbr - preBendRelease
brb - bendReleaseBend
\n/ - tremolo bar dip
\n - tremolo bar dive
-/n - tremolo bar Release up
/n\ - tremolo bar inverted dip
/n - tremolo bar return
-\n - tremolo bar Release down
S - shift slide
s - legato slide
/ -  slide into from below or out of upwards
\ -  slide into from above or out of downwards
~ - vibrato
W - wide vibrato
tr - trill
TP - tremolo picking
T - tapping
S - slap
P - pop
< - fade in
^ - brush up
v - brush down
Добавлено: 03.03.2012
Другие материалы по этой песне:

Страница создана 03.03.2012
http://primanota.ru/kotaro-oshio/look-up-at-the-evening-stars-chords.htm
Привет, Гость.
Предлагаем пройти революционный курс по гитаре.
Подарок от PrimaNota.Ru, забирай!