PrimaNota.ru - самый крупный в мире бесплатный архив песенных текстов, аккордов, табулатур и нот


Killswitch Engage - Starting Over - текст песни, таба, бас-таба, видео

Регистрация Запомнить меня
Войти через:  Facebook Google Twitter Vk Yandex Mail.ru

Killswitch Engage - Starting Over - текст песни, таба, бас-таба, видео

Печатать
Просмотров: 197
~ Vibrato or Strumming (Listen to song for strumming patterns)
/ Slide up
\ Slide down
p Pull Off
h Hammer on

Listen for palm mutes during riffs as I didn't indicate them.

Intro x2:

Guitar 1:

D|--------------------------------------------------------|
A|--------------------------------------------------------|
F|--------------------------------------------------------|
C|3~---------------------------------------------------2~-|
G|3~---------------------------------------------------2~-|
C|3~---------------------------------------------------2~-|

D|--------------------------------------------------------|
A|--------------------------------------------------------|
F|--------------------------------------------------------|
C|3~---------------------------5~-------------------------|
G|3~---------------------------5~-------------------------|
C|3~---------------------------5~-------------------------|

Guitar 1:

D|--------------------------------------------------------|
A|--------------------------------------------------------|
F|---------------/12~-----/7---5~----/4-------------------|
C|/7~----/10----------------------------------5~----------|
G|--------------------------------------------------------|
C|--------------------------------------------------------|

D|--------------------------------------------------------|
A|--------------------------------------------------------|
F|------/12--12-10-9------9--------/12-10-9----12-10-9----|
C|7h10-----------------12----12-10----------10------------|
G|--------------------------------------------------------|
C|--------------------------------------------------------|

Verse 1 x2:

Guitar 1:

(triplet palm muting)

D|------------------------------------------------------------------|
A|--------------------------------------------5--------------5------|
F|----------------------------------------5-----5--------5-----5----|
C|-7----------------10---9----9h-10-----5---5-----5----5---5-----5--|
G|-7----------------7----7----7--7----3--------------0--------------|
C|-7--777-777-777-7----7----7---------3--------------0--------------|


D|------------------------------------------------------------------|
A|-----------------------------------------5--------------5---------|
F|-----------------5----4----4h5-------5-----5--------5-----5-------|
C|-5---------------5----5----5-5-----5---5-----5----5---5-----5-----|
G|-5-------------0----0----0-------3--------------5-----------------|
C|-5-555-555-555-------------------3--------------5-----------------|

Pre-Chorus 1: (Same as intro riff, play once)

Guitar 1:

D|----------------|
A|----------------|
F|----------------|
C|-(Slide down)---|
G|-12\\\\\--------|
C|-12\\\\\--------|

D|--------------------------------------------------------|
A|--------------------------------------------------------|
F|---------------/12~-----/7---5~----/4-------------------|
C|/7~----/10----------------------------------5~----------|
G|--------------------------------------------------------|
C|--------------------------------------------------------|

D|--------------------------------------------------------|
A|--------------------------------------------------------|
F|------/12--12-10-9------9--------/12-10-9----12-10-9----|
C|7h10-----------------12----12-10----------10------------|
G|--------------------------------------------------------|
C|--------------------------------------------------------|


Chorus 1: 

Guitar 1: 

D|---------------------------------------------------------|
A|---------------------------------------------------------|
F|-----------9-----12p9--------9-----12p9-------9----------|
C|----10--10---10-------10--10---10------10--10------------|
G|---------------------------------------------------------|
C|---------------------------------------------------------|

Guitar 2: 

D|---------------------------------------------------------|
A|---------------------------------------------------------|
F|---------------------------------------------------------|
C|3~-------------------------------------------------------|
G|3~-------------------------------------------------------|
C|3~-------------------------------------------------------|

Guitar 1:


D|---------------------------------------------------------|
A|---------------------------------------------------------|
F|-----------9-----10p9--------9-----10p9-------9----------|
C|----10--10---10-------10--10---10------10--10------------|
G|---------------------------------------------------------|
C|---------------------------------------------------------|

Guitar 2:

D|---------------------------------------------------------|
A|---------------------------------------------------------|
F|---------------------------------------------------------|
C|0~-------------------------------------------------------|
G|0~-------------------------------------------------------|
C|0~-------------------------------------------------------|

Guitar 1:

D|---------------------------------------------------------|
A|---------------------------------------------------------|
F|-----------9-----12p9--------9-----12p9-------9----------|
C|----10--10---10-------10--10---10------10--10------------|
G|---------------------------------------------------------|
C|---------------------------------------------------------|

Guitar 2: 

D|---------------------------------------------------------|
A|---------------------------------------------------------|
F|---------------------------------------------------------|
C|3~-------------------------------------------------------|
G|3~-------------------------------------------------------|
C|3~-------------------------------------------------------|

Guitar 1:

D|---------------------------------------------------------|
A|---------------------------------------------------------|
F|----------9----10-9----10----9-----9h10p9----------------|
C|--7~--7-----7--------7-----7---------------12--10--------|
G|---------------------------------------------------------|
C|---------------------------------------------------------|

Guitar 2: 

D|---------------------------------------------------------|
A|---------------------------------------------------------|
F|---------------------------------------------------------|
C|7~---------------------------5~--------------------------|
G|7~---------------------------5~--------------------------|
C|7~---------------------------5~--------------------------|

Drum and Bass Duet:

Verse 2: 

Guitar 1 x2:

D|------------------------------------------------------------------|
A|--------------------------------------------5--------------5------|
F|----------------------------------------5-----5--------5-----5----|
C|10\---------------10---9----9h-10-----5---5-----5----5---5-----5--|
G|7\----------------7----7----7--7----3--------------0--------------|
C|----777-777-777-7----7----7---------3--------------0--------------|

D|------------------------------------------------------------------|
A|-----------------------------------------5--------------5---------|
F|-----------------5----4----4h5-------5-----5--------5-----5-------|
C|-5---------------5----5----5-5-----5---5-----5----5---5-----5-----|
G|-5-------------0----0----0-------3--------------5-----------------|
C|-5-555-555-555-------------------3--------------5-----------------|

Guitar 2: (Play second time the verse riff is played)

D|------------------------------------------------------------------|
A|------------------------------------------------------------------|
F|-9~------------/12~------------\10~----------/12~-----------------|
C|-X~------------/X~-------------\X~-----------/X~------------------|
G|-7~------------/10~------------\8~-----------/10~-----------------|
C|------------------------------------------------------------------|

D|------------------------------------------------------------------|
A|------------------------------------------------------------------|
F|-7~------------/12~------------\10~----------/12~-----------------|
C|-X~------------/X~-------------\X~-----------/X~------------------|
G|-5~------------/10~------------\8~-----------/10~-----------------|
C|------------------------------------------------------------------|

Fill x2: 


D|------------------------------------------------------------------|
A|------------------------------------------------------------------|
F|------------------------------------------------------------------|
C|------------------8~----------------------------------------------|
G|------------------8~----------------------------------------------|
C|7777777-----------8~----------------------------------------------|

then

D|----------------|
A|----------------|
F|----------------|
C|-(Slide down)---|
G|-12\\\\\--------|
C|-12\\\\\--------|

Chorus 2:

Guitar 1: 

D|---------------------------------------------------------|
A|---------------------------------------------------------|
F|-----------9-----12p9--------9-----12p9-------9----------|
C|----10--10---10-------10--10---10------10--10------------|
G|---------------------------------------------------------|
C|---------------------------------------------------------|

Guitar 2: 

D|---------------------------------------------------------|
A|---------------------------------------------------------|
F|---------------------------------------------------------|
C|3~-------------------------------------------------------|
G|3~-------------------------------------------------------|
C|3~-------------------------------------------------------|

Guitar 1:


D|---------------------------------------------------------|
A|---------------------------------------------------------|
F|-----------9-----10p9--------9-----10p9-------9----------|
C|----10--10---10-------10--10---10------10--10------------|
G|---------------------------------------------------------|
C|---------------------------------------------------------|

Guitar 2:

D|---------------------------------------------------------|
A|---------------------------------------------------------|
F|---------------------------------------------------------|
C|0~-------------------------------------------------------|
G|0~-------------------------------------------------------|
C|0~-------------------------------------------------------|

Guitar 1:

D|---------------------------------------------------------|
A|---------------------------------------------------------|
F|-----------9-----12p9--------9-----12p9-------9----------|
C|----10--10---10-------10--10---10------10--10------------|
G|---------------------------------------------------------|
C|---------------------------------------------------------|

Guitar 2: 

D|---------------------------------------------------------|
A|---------------------------------------------------------|
F|---------------------------------------------------------|
C|3~-------------------------------------------------------|
G|3~-------------------------------------------------------|
C|3~-------------------------------------------------------|

Guitar 1:

D|---------------------------------------------------------|
A|---------------------------------------------------------|
F|----------9----10-9----10----9-----9h10p9----------------|
C|--7~--7-----7--------7-----7---------------12--10--------|
G|---------------------------------------------------------|
C|---------------------------------------------------------|

Guitar 2: 

D|---------------------------------------------------------|
A|---------------------------------------------------------|
F|---------------------------------------------------------|
C|7~---------------------------5~--------------------------|
G|7~---------------------------5~--------------------------|
C|7~---------------------------5~--------------------------|

Break:

D|---------------------------------------------------------|
A|---------------------------------------------------------|
F|-------------------------------------9~-------10~--------|
C|-----9---9h10-----------9----9h10----7~-------7~---------|
G|7------------------------------------7~-------7~---------|
C|7-7----7-------7777--7----7------------------------------|

D|---------------------------------------------------------|
A|---------------------------------------------------------|
F|-------------------------------------10~------12~--------|
C|-----9---9h10-----------9----9h10----7~-------10~--------|
G|7------------------------------------7~-------10~--------|
C|7-7----7-------7777--7----7------------------------------|

D|---------------------------------------------------------|
A|---------------------------------------------------------|
F|-----7---7h9------------7h9--7h9-----9~-------10~--------|
C|-------------------------------------7~-------7~---------|
G|7------------------------------------7~-------7~---------|
C|7-7----7-------7777--7----7------------------------------|

D|---------------------------------------------------------|
A|---------------------------------------------------------|
F|-----7---7h9------------7----7h9-----10~------12~--------|
C|-------------------------------------7~-------10~--------|
G|7------------------------------------7~-------10~--------|
C|7-7----7-------7777--7----7------------------------------|

Clean Interlude:

Guitar 1: (Let all notes ring)

D|---------------------------------------------------------|
A|----5---8-5--------5---8-5--------3---5-3-----3---5-3----|
F|--5---5-----5----5---5-----5----5---5-----3-5---5-----5--|
C|5------------------------------0-------------------------|
G|---------------------------------------------------------|
C|---------------------------------------------------------|

D|---------------------------------------------------------|
A|----5---8-5----------------------------------------------|
F|--5---5-----5~-------------------------------------------|
C|5--------------------------------------------------------|
G|---------------------------------------------------------|
C|---------------------------------------------------------|

Fill:

D|---------------------------------------|
A|---------------------------------------|
F|---------------------------------------|
C|-12\\\\\----/7~-------/5~--------------|
G|-12\\\\\-------------------12\\\\\\\\\-|
C|---------------------------12\\\\\\\\\-|

Chorus 3:

Guitar 1: 

D|---------------------------------------------------------|
A|---------------------------------------------------------|
F|-----------9-----12p9--------9-----12p9-------9----------|
C|----10--10---10-------10--10---10------10--10------------|
G|---------------------------------------------------------|
C|---------------------------------------------------------|

Guitar 2: 

D|---------------------------------------------------------|
A|---------------------------------------------------------|
F|---------------------------------------------------------|
C|3~-------------------------------------------------------|
G|3~-------------------------------------------------------|
C|3~-------------------------------------------------------|

Guitar 1:


D|---------------------------------------------------------|
A|---------------------------------------------------------|
F|-----------9-----10p9--------9-----10p9-------9----------|
C|----10--10---10-------10--10---10------10--10------------|
G|---------------------------------------------------------|
C|---------------------------------------------------------|

Guitar 2:

D|---------------------------------------------------------|
A|---------------------------------------------------------|
F|---------------------------------------------------------|
C|0~-------------------------------------------------------|
G|0~-------------------------------------------------------|
C|0~-------------------------------------------------------|

Guitar 1:

D|---------------------------------------------------------|
A|---------------------------------------------------------|
F|-----------9-----12p9--------9-----12p9-------9----------|
C|----10--10---10-------10--10---10------10--10------------|
G|---------------------------------------------------------|
C|---------------------------------------------------------|

Guitar 2: 

D|---------------------------------------------------------|
A|---------------------------------------------------------|
F|---------------------------------------------------------|
C|3~-------------------------------------------------------|
G|3~-------------------------------------------------------|
C|3~-------------------------------------------------------|

Guitar 1:

D|---------------------------------------------------------|
A|---------------------------------------------------------|
F|----------9----10-9----10----9-----9h10p9----------------|
C|--7~--7-----7--------7-----7---------------12--10--------|
G|---------------------------------------------------------|
C|---------------------------------------------------------|

Outro x2:



D|---------------------------------------------------------|
A|---------------------------------------------------------|
F|-10~---------------------------------/12~----------------|
C|-X~----------------------------------/X~-----------------|
G|-8~----------------------------------/10~----------------|
C|---------------------------------------------------------|

Guitar 2: 

D|---------------------------------------------------------|
A|---------------------------------------------------------|
F|---------------------------------------------------------|
C|3~-------------------------0~----------------------------|
G|3~-------------------------0~----------------------------|
C|3~-------------------------0~----------------------------|

Guitar 1:


D|------------------------------------------------------------------|
A|------------------------------------------------------------------|
F|-10~-----------/12~------------\14~----------/12~-----------------|
C|-X~------------/X~-------------\X~-----------/X~------------------|
G|-8~------------/10~------------\12~----------/10~-----------------|
C|------------------------------------------------------------------|

Guitar 2:

D|---------------------------------------------------------|
A|---------------------------------------------------------|
F|---------------------------------------------------------|
C|3~-------------------------7~-------------5~-------------|
G|3~-------------------------7~-------------5~-------------|
C|3~-------------------------7~-------------5~-------------|

Guitar 1 (Last note, Let Ring):

D|------------|
A|------------|
F|-10~--------|
C|-X~---------|
G|-8~---------|
C|------------|


Guitar 2 (Last note, Let Ring):

D|------------|
A|------------|
F|------------|
C|-3~---------|
G|-3~---------|
C|-3~---------|
Добавлено: 10.05.2012
Другие материалы по этой песне:

Страница создана 28.02.2012
http://primanota.ru/killswitch-engage/starting-over-chords.htm
Привет, Гость.
Предлагаем пройти революционный курс по гитаре.
Подарок от PrimaNota.Ru, забирай!