PrimaNota.ru - самый крупный в мире бесплатный архив песенных текстов, аккордов, табулатур и нот


Killswitch Engage - Still Beats Your Name - текст песни, таба, бас-таба, видео

Регистрация Запомнить меня
Войти через:  Facebook Google Twitter Vk Yandex Mail.ru

Killswitch Engage - Still Beats Your Name - текст песни, таба, бас-таба, видео

Печатать
Просмотров: 216
Band - Killswitch Engage
Song - Still Beats Your Name
Album - As Daylight Dies

Tuning - Drop C (CGCFAD)

Intro
|-------------------------------------------------------------------|
|-------------------------------------------------------------------|
|-------------------------------------------------------------------|
|-------------------------------------------------------------------|
|-------------------------------------------------------------------|
|-12h13p12-0-0-3p0-0-0-12h13p12-0-0-8h10p8-0-0-12h13p12-0-0-3p0-0-0-|
PM         . .     . .          . .        . .          . .     . .

|--------------------|
|--------------------|
|--------------------|
|--------------------|
|--------------8--10-|
|-12h13p12-0-0-8--10-|
PM         . .

Verse
|------------------------------------------|
|------------------------------------------|
|------------------------------------------|
|------------------------------------------| Repeat 3 times
|------------------------------------------|
|-12h13p12-0-0-3p0-0-0-12h13p12-0-0-8h10p8-|
PM         . .     . .          . .

|---------------------------------|
|---------------------------------|
|-12p10p0-------------------------|
|---------12p10p0-----------------| Play fourth time
|-----------------12p10p0---------|
|-------------------------12p10p0-|

Pre-chorus 1 (Guitar 1)
|---------------------------------------------------------------------|
|---------------------------------------------------------------------|
|---------------------------------------------------------------------|
|---------------------------------------------------------------------|
|-5555555555555555-4444444444444444-----------------------------------|
|-----------------------------------7777777777777777-8888888888888888-|

Pre-chorus 1 (Guitar 2)
|---------------------------------------------------------------------------
|---------------------------------------------------------------------------
|---------------------------------------------------------------------------
|------7777-88888888-----7777-99998888------7777-88888888-88888888-77777777
|-5555---------------4444---------------------------------------------------
|--------------------------------------7777---------------------------------

Fill (Guitar 1)
|---------------------------------|
|---------------------------------|
|-12p10p0-------------------------|
|---------12p10p0-----------------|
|-----------------12p10p0---------|
|-------------------------12p10p0-|

Fill (Guitar 2)
|-------------------------|
|-------------------------|
|-8p7p0-------------------|
|-------8p7p0-------------|
|-------------8p7p0-------|
|-------------------8p7p0-|

Verse
|------------------------------------------|
|------------------------------------------|
|------------------------------------------|
|------------------------------------------| Repeat 3 times
|------------------------------------------|
|-12h13p12-0-0-3p0-0-0-12h13p12-0-0-8h10p8-|
PM         . .     . .          . .

|---------------------------------|
|---------------------------------|
|-12p10p0-------------------------|
|---------12p10p0-----------------| Play fourth time
|-----------------12p10p0---------|
|-------------------------12p10p0-|

Pre-chorus 1 (Guitar 1)
|---------------------------------------------------------------------|
|---------------------------------------------------------------------|
|---------------------------------------------------------------------|
|---------------------------------------------------------------------|
|-5555555555555555-4444444444444444-----------------------------------|
|-----------------------------------7777777777777777-8888888888888888-|

Pre-chorus 1 (Guitar 2) (play once)
|---------------------------------------------------------------------------
|---------------------------------------------------------------------------
|---------------------------------------------------------------------------
|------7777-88888888------7777-88888888------7777-88888888-88888888-77777777
|-5555---------------4444---------------------------------------------------
|---------------------------------------7777--------------------------------

Pre-chorus 1 (Guitar 2) (Cont)
|----------------------------|
|----------------------------|
|------9999-1010101010101010-|(10's not 1's and 0's)
|-7777-----------------------|(Play 3 times)
|----------------------------|
|----------------------------|

|---------------------------|
|---------------------------|
|-1010101010101010-99999999-|(10's not 1's and 0's)
|---------------------------|(Play the fourth time)
|---------------------------|
|---------------------------|

Chorus (Guitar 1)
|----------------------------------|
|----------------------------------|
|----------------------------------|
|-7p0-7p0-5h7-0-7-5h7-7-7h8p7------|
|-----------------------------10-8-|
|----------------------------------|

Chorus (Guitar 2) (strum chords)
|------------------------------------------------|
|------------------------------------------------|
|------------------------------------------------|
|---------------------10-10-10-10~---------------|
|-0-0-0-0~--3-3-3-3~--8--8--8--8~---10-10-10-10~-|
|-0-0-0-0~--3-3-3-3~--8--8--8--8~---10-10-10-10~-|

Chorus (Guitar 2) (Cont)
|------------------------------------------------|
|------------------------------------------------|
|------------------------------------------------|
|---------------------10-10-10-10~---------------|
|-0-0-0-0~--3-3-3-3~--8--8--8--8~---10-10-10-10~-|
|-0-0-0-0~--3-3-3-3~--8--8--8--8~---10-10-10-10~-|
PM  . .

Interlude (Both guitars play twice)
|-----------------------------------------------------------------------|
|-----------------------------------------------------------------------|
|---------------------------------------------------------9999-10101010-|
|-----10---8----------------------------------------------xxxx-x-x-x-x--|
|--------------12---10---8---10h12p10p8-----12---10---8---7777-8-8-8-8--|
|-8-8----8---8----8----8---8------------7-7----7----7---7---------------|
PM. .    .   .    .    .   .            . .    .    .   .

Interlude (Guitar 2) (Played the last two times)
|-----------------------------------------------------------------------|
|-----------------------------------------------------------------------|
|-----8---7---------------------------------------------9999-10101010---|
|-------------10----8----7---8h10p8p7-----10---8----7---xxxx-x-x-x-x----|
|-------------------------------------------------------7777-8-8-8-8----|
|-8-8---8---8-----8----8---8----------0-0----0----0---0-----------------|
PM. .    .   .    .    .   .          . .    .    .   .

Interlude (Guitar 2) (Played when Adam stars singing)
|-------------------------------------------|
|-------------------------------------------|
|-----------------------------9999-10101010-|
|---------10-10-10-10---------xxxx-x-x-x-x--|
|-8-8-8-8-8--8--8--8--7-7-7-7-7777-8-8-8-8--|
|-8-8-8-8-8--8--8--8--7-7-7-7---------------|

|-------------------------------------------|
|-------------------------------------------|
|-----------------------------9999-10101010-|
|---------10-10-10-10---------xxxx-x-x-x-x--|
|-8-8-8-8-8--8--8--8--0-0-0-0-7777-8-8-8-8--|
|-8-8-8-8-8--8--8--8--0-0-0-0---------------|

Repeat verse
Repeat chorus
Добавлено: 01.06.2012
Другие материалы по этой песне:

Страница создана 27.03.2012
http://primanota.ru/killswitch-engage/still-beats-your-name-chords.htm
Привет, Гость.
Предлагаем пройти революционный курс по гитаре.
Подарок от PrimaNota.Ru, забирай!