PrimaNota.ru - самый крупный в мире бесплатный архив песенных текстов, аккордов, табулатур и нот


Killswitch Engage - Wasted Sacrifice - текст песни, таба, бас-таба, видео

Регистрация Запомнить меня
Войти через:  Facebook Google Twitter Vk Yandex Mail.ru

Killswitch Engage - Wasted Sacrifice - текст песни, таба, бас-таба, видео

Печатать
Просмотров: 142
Band- Killswitch Engage
Song- Wasted Sacrifice

D|---------------------------------------------------------------------|
A|-------------------------------10------------------------------------|
F|-------------------------------10------------------------------------|x4
C|--------------------------------8------------------------5/8-8-8-8-7-|
G|-0-000-0000000-0000000-0000000-----0-000-0000000-0000000-3/6-6-6-6-5-|
C|-0-000-0000000-0000000-0000000-----0-000-0000000-0000000-------------|
     ... ....... ....... .......       ... ....... .......


D|-----------------------------------------------------------------------------|
A|-----------------------------------------------------------------------------|
F|-----------------------------------------------------------------------------|
C|-----------------------------------------------------------------------------|
G|-----------------------------------------------------------------------------|
C|-12p0-0-10p0-0-13p0-0-12p0-0-10h12p0-0—10p0-0-8p0-0-12p0-0-10p0-0-8h10-p0-0--|


D|-----------------------------------------------------------------------------|
A|-----------------------------------------------------------------------------|
F|-----------------------------------------------------------------------------|
C|-----------------------------------------------------------------------------|
G|------------------------17\\\\\\0--------------------------------------------|
C|------------------------17\\\\\\0--------------------------------------------|
		    					Pick slide


D|-----------------------------------------------------------------------------|
A|-----------------------------------------------------------------------------|
F|-----------------------------------------------------------------------------|
C|-----------------------------------------------------------------------------|
G|-----------------------------------------------------------------------------|
C|-12p0-0-10p0-0-13p0-0-12p0-0-10h12p0-0—10p0-0-8p0-0-12p0-0-10p0-0-8h10-p0-0--|

D|-----------------------------------------------------------------------------|
A|-----------------------------------------------------------------------------|
F|-----------------------------------------------------------------------------|
C|-----------------------------------------------------------------------------|
G|-----------------------------------------------------------------------------|
C|-12p0-0-10p0-0-13p0-0-12p0-0-10h12p0-0—10p0-0-8p0-0-12p0-0-10p0-0-8h10-p0-0--|

                                                                                }x2

D|-----------------------------------------------------------------------------|
A|-----------------------------------------------------------------------------|
F|-----------------------------------------------------------------------------|
C|------------------------------------------------------------------8--8-8-----|
G|------------------------------------------------------------------6—-6-6-----|
C|-12p0-0-10p0-0-13p0-0-12p0-0-10h12p0-0—10p0-0-8p0-0-12p0-0-10p0-0------------|




D|----------------------------------------------------|
A|----------------------------------------------------|
F|----------------------------------------------------|
C|----------------------------------------------------|
G|--------------------------7h8-----------------------|
C|-0-000000000000000010-08p7---10-0810-03~~~~---------|
     ..................  ....  .......
Guitar one

D|-----------------------------------------|
A|-----------------------------------------|
F|-----------------------------------------|
C|-------------------------------5/8--7----|
G|------------------11111111-33333/6--5----|
C|-0-00000000000000------------------------|
     ............................

Guitar two

D|-----------------------------------------|
A|-----------------------------------------|
F|----------------------55-----------------|
C|--------------------33-----33555/8--7----|
G|------------------55-----55----3/6--5----|
C|-0-00000000000000------------------------|
     ............................

D|----------------------------------------------------|
A|----------------------------------------------------|
F|----------------------------------------------------|
C|----------------------------------------------------|
G|--------------------------7h8-----------------------|
C|-0-000000000000000010-08p7---10-0810-03~~~~---------|
     ..................  ....  .......


Guitar one

D|----------------------------------------------------|
A|----------------------------------------------------|
F|----------------------------------------------------|
C|----------------------------------------------------|
G|----------------------------------------------------|
C|-0-00000000000000-777788881010101015\\\\\\\\--------|
     .............. ................
Guitar two

D|------------------------------------------------|
A|------------------------------------------------|
F|----------------------55------------------------|
C|--------------------33-----3355-----------------|
G|------------------55-----55---------------------|
C|-0-00000000000000----------------15\\\\\\\\\\---|
     ............................

D|---------------------------------------------------------------------|
A|-------------------------------10------------------------------------|
F|-------------------------------10------------------------------------|x2
C|--------------------------------8------------------------5/8-8-8-8-7-|
G|-0-000-0000000-0000000-0000000-----0-000-0000000-0000000-3/6-6-6-6-5-|
C|-0-000-0000000-0000000-0000000-----0-000-0000000-0000000-------------|
     ... ....... ....... .......       ... ....... .......


Guitar one

D|--------------------------------------------|
A|--------------------------------------------|
F|--------------------------------------------|
C|--------------------------------------------|
G|--------------------------------------------|
C|-12p0-0-10p0-0-13p0-0-12p0-0-15~~~~---------|


Guitar two

D|------------------------------------------------------|
A|------------------------------------------------------|
F|------------------------------------------------------|
C|------------------------------------------------------|
G|------------------------------------------------------|
C|--------------------------------17\\\\\\\\\\\\\\\\----|

D|----------------------------------------------------|
A|----------------------------------------------------|
F|----------------------------------------------------|
C|----------------------------------------------------|
G|--------------------------7h8-----------------------|
C|-0-000000000000000010-08p7---10-0810-03~~~~---------|
     ..................  ....  .......

Guitar one

D|-----------------------------------------|
A|-----------------------------------------|
F|-----------------------------------------|
C|-------------------------------5/8--7----|
G|------------------11111111-33333/6--5----|
C|-0-00000000000000------------------------|
     ............................
Guitar two

D|-----------------------------------------|
A|-----------------------------------------|
F|----------------------55-----------------|
C|--------------------33-----33555/8--7----|
G|------------------55-----55----3/6--5----|
C|-0-00000000000000------------------------|
     ............................


D|----------------------------------------------------|
A|----------------------------------------------------|
F|----------------------------------------------------|
C|----------------------------------------------------|
G|--------------------------7h8-----------------------|
C|-0-000000000000000010-08p7---10-0810-03~~~~---------|
     ..................  ....  .......


D|-----------------------------------------|
A|-----------------------------------------|
F|-----------------------------------------|
C|---------------------10------------------|
G|-------------------------8h10-10--0------|
C|-0-000000000000008888--xx8h10-10--0------|
     ..................

CHORUS

D|-------------------------------------------------------|
A|-------------------------------------------------------|
F|----------------9-9-----9-9----10-10---10-10-----------|
C|--3---3-3-3-3------------------10-10---10-10-----------|
G|--3---3-3-3-3---7-7-----7-7-----8-8-----8-8------------|
C|--3---3-3-3-3-------0-0-----0-0-----0-0-----0-0--------|
                      ...     ...     ...     ...

D|---------------------------------------------|
A|---------------------------------------------|
F|-10--10-10-10-10-10--10--10-10-10-10-10------|
C|-10--10-10-10-10-10--10--10-10-10-10-10------|
G|--8---8-8-8-8-8-8-8---8---8-8-8-8-8-8-8------|
C|--8---8-8-8-8-8-8-8---8---8-8-8-8-8-8-8------|


D|--------3---------------3-------------------|
A|----6-----6---------6-----6-----------------|
F|------5-----5-5-------5-----5-5-------------|
C|--3--------------3--------------------------|
G|--3--------------4--------------------------|
C|--3-----------------------------------------|




Guitar one

D|--------------------------------------------|
A|--------------------------------------------|
F|--------------------------------------------|
C|--------------------------------------------|
G|--------------------------------------------|
C|-12p0-0-10p0-0-13p0-0-12p0-0-15~~~~---------|


Guitar two

D|------------------------------------------------------------------------|
A|------------------------------------------------------------------------|
F|------------------------------------------------------------------------|
C|------------------------------------------------------------------------|
G|------------------------------------------------------------------------|
C|--x\\\\\\\\\\\\\\\\\\\\\\\\\\\\\\\\\\\\\\\\\\\\\\\\\\\\-----------------|
	Pick slide


D|----------------------------------------------------|
A|----------------------------------------------------|
F|----------------------------------------------------|
C|----------------------------------------------------|
G|--------------------------7h8-----------------------|
C|-0-000000000000000010-08p7---10-0810-03~~~~---------|
     ..................  ....  .......

Guitar one

D|-----------------------------------------|
A|-----------------------------------------|
F|-----------------------------------------|
C|-------------------------------5/8--7----|
G|------------------11111111-33333/6--5----|
C|-0-00000000000000------------------------|
     ............................

Guitar two

D|-----------------------------------------|
A|-----------------------------------------|
F|----------------------55-----------------|
C|--------------------33-----33555/8--7----|
G|------------------55-----55----3/6--5----|
C|-0-00000000000000------------------------|
     ............................


D|----------------------------------------------------|
A|----------------------------------------------------|
F|----------------------------------------------------|
C|----------------------------------------------------|
G|--------------------------7h8-----------------------|
C|-0-000000000000000010-08p7---10-0810-03~~~~---------|
     ..................  ....  .......


Guitar one

D|-----------------------------------------|
A|-----------------------------------------|
F|-----------------------------------------|
C|-----------------------------------------|
G|--------------------------8h10-10--0-----|
C|-0-0000000000120888888--xx8h10-10--0-----|
     ...................
Guitar two

D|-----------------------------------------|
A|-----------------------------------------|
F|----------------------55-----------------|
C|--------------------33-----3h5-5-5/8-----|
G|------------------55-----55--------------|
C|-0-00000000000000------------------------|
     ........................

CHORUS

D|-------------------------------------------------------|
A|-------------------------------------------------------|
F|----------------9-9-----9-9----10-10---10-10-----------|
C|--3---3-3-3-3------------------10-10---10-10-----------|
G|--3---3-3-3-3---7-7-----7-7-----8-8-----8-8------------|
C|--3---3-3-3-3-------0-0-----0-0-----0-0-----0-0--------|
                      ...     ...     ...     ...


D|---------------------------------------------|
A|---------------------------------------------|
F|-10--10-10-10-10-10--10--10-10-10-10-10------|
C|-10--10-10-10-10-10--10--10-10-10-10-10------|
G|--8---8-8-8-8-8-8-8---8---8-8-8-8-8-8-8------|
C|--8---8-8-8-8-8-8-8---8---8-8-8-8-8-8-8------|


D|--------3---------------3-------------------|
A|----6-----6---------6-----6-----------------|
F|------5-----5-5-------5-----5-5-------------|
C|--3--------------3--------------------------|
G|--3--------------4--------------------------|
C|--3-----------------------------------------|
Добавлено: 21.07.2012
Другие материалы по этой песне:

Страница создана 28.02.2012
http://primanota.ru/killswitch-engage/wasted-sacrifice-chords.htm
Привет, Гость.
Предлагаем пройти революционный курс по гитаре.
Подарок от PrimaNota.Ru, забирай!