PrimaNota.ru - самый крупный в мире бесплатный архив песенных текстов, аккордов, табулатур и нот


Killswitch Engage - The End Of Heartache - аккорды и текст, таба, бас-таба, видео

Регистрация Запомнить меня
Войти через:  Facebook Google Twitter Vk Yandex Mail.ru

Killswitch Engage - The End Of Heartache - аккорды и текст, таба, бас-таба, видео

Печатать
Просмотров: 501
The End Of Heartache
Killswitch Engage
Hey everybody! This song isn't actually performed by Killswitch Engage but I like 
it more than the original. I hope you enjoy it as well.

If you have any questions or if I didn't make anything clear (this is my first 
tab) you can email me at Elijahbird2010@gmail.com


Verse l:

Guitar 2 picking
E|----------------|
A|----------------|
D|----------------|
G|---4--4--4--4--4|
B|--4--4--4--4--4-|
e|-0--0--0--0--2--|



  C#m*	 C#m*
Seek me, call me
	 B*	   B*
I'll be waiting

  C#m*	 C#m*
Seek me, call me
	 A*	    A* 
I'll be waiting
 C#m*				C#m*
    This distance, this dissolution
   A*		     A*		   C#m*
    I cling to memories of the fallen
C#m*				             A*
Sleep brings release, and the hope of a new day
	       A*		     A*(upstrum) (stop picking)
Waking the misery of being without you

Chorus l:
		  C#m*			 B*
For comfort, 		For solace
			     A*
For the end of my broken heart

Verse 2:
 C#m	       C#m		       B
    You know me, you know me all too well
	    B			    C#m
My only desire - to bridge our division
	 C#m	            A
In sorrow   I speak your name 
	       A		   A
Awaken the misery of being without you




Chorus 2:
		  C#m
(Seek me) For comfort, (Call me) For solace
	    B			    A
(I'll be waiting) For the end of my broken heart


Interlude/Solo:A C#m B A B A C#m  B A

Solo
E|--------------------------------|
A|--------------------------------|
D|-11-9-7-9-7-6-4-6-4-2-4-2-1-2-4-|
G|--------------------------------|
B|--------------------------------|
e|--------------------------------|

E|--------------------------------|
A|--------------------------------|
D|-11-9-7-9-7-6-4-6-4-2-4-2-1-2---|
G|------------------------------4-|
B|--------------------------------|
e|--------------------------------|

E|--------------------------------|
A|--------------------------------|
D|-11-9-7-9-7-6-4-6-4-2-4-2-1-2-4-|
G|--------------------------------|
B|--------------------------------|
e|--------------------------------| X3

   Fourth time play this
E|---------------------------------------------------------|
A|---------------------------------------------------------|
D|-11-9-7-9-7-6-4-6-4-2-4-2-1-2-1-2-4-2-4-6-4-6-7-9-7-9-11-|
G|---------------------------------------------------------|
B|---------------------------------------------------------|
e|---------------------------------------------------------|


E|------|         E|------|        E|------|     E|--------------|     
A|------|         A|------|        A|------|     A|--------------|
D|------|         D|------|        D|------|     D|--------------|
G|-9----|         G|-6----|        G|--4---|     G|-4--4--4--4---|
B|--10--|         B|---9--|        B|---7--|     B|--5--5--4--4--|
e|------| X8      e|------| X8     e|------| X4  e|--------------|

E|------|
A|------|
D|------|
G|-9----|
B|--10--|
e|------|X4 Fifth Time Strum.


Chorus 3:

A*	       C#m*          B *     A* 
   For comfort,   for solace
A			C#m
(Seek me) For comfort, (Call me) For solace
	 B			     A
(I'll be waiting) For the end of my broken heart
A			 C#m
    (Seek me) Completion,   (Call me) I'll be waiting
	    B		            A	         (guitar 2 start picking)
(I'll be waiting) For the end of my broken heart


Guitar 2 picking
E|----------------|
A|----------------|
D|----------------|
G|---4--4--4--4--4|
B|--4--4--4--4--4-|
e|-0--0--0--0--2--|


Outro: A C#m B A C#m
Добавлено: 14.04.2012
Другие материалы по этой песне:

Страница создана 23.02.2012
http://primanota.ru/killswitch-engage/the-end-of-the-heartache-chords.htm
Привет, Гость.
Предлагаем пройти революционный курс по гитаре.
Подарок от PrimaNota.Ru, забирай!