PrimaNota.ru - самый крупный в мире бесплатный архив песенных текстов, аккордов, табулатур и нот


Killswitch Engage - Take Me Away - таба, видео

Регистрация Запомнить меня
Войти через:  Facebook Google Twitter Vk Yandex Mail.ru

Killswitch Engage - Take Me Away - таба, видео

Печатать
Просмотров: 135
Killswitch Engage . Take me Away

Tuning - Drop D standard - DGCFAD

Note: The clean parts is probably tapped. I've been listening to this many
many times and i can clearly hear that he is taking notes very close to eachother.
So, i recommend that you try to tap the clean part and decide for yourself witch way you want
to play. (sorry for my bad english)


  intro - Guitar 1 - 2x
D|---------------------------------------------------|
A|--7p0---7p0-7p0---7p0-7p0---5p0---7p0---5p0---7p0--|
F|------0---------0---------0-----0-----0-----0------|
C|---------------------------------------------------|
G|---------------------------------------------------|
D|---------------------------------------------------|
        .         .         .     .     .     .

D|---------------------------------------------------|
A|--3p0---3p0-3p0---3p0-3p0---2p0---3p0---2p0---3p0--|
F|------0---------0---------0-----0-----0-----0------|
C|---------------------------------------------------|
G|---------------------------------------------------|
D|---------------------------------------------------|
        .         .         .     .     .     .

D|---------------------------------------------------|
A|--3p0---3p0-3p0---3p0-3p0---2p0---3p0---2p0---3p0--|
F|------0---------0---------0-----0-----0-----0------|
C|---------------------------------------------------|
G|---------------------------------------------------|
D|---------------------------------------------------|
        .         .         .     .     .     .

D|---------------------------------------------------|  D|---------|
A|--3p0---3p0-3p0---3p0-3p0---2p0---3p0---2p0---5p0--|  A|---------|  <-- second time!
F|------0---------0---------0-----0-----0-----0------|  F|---------|
C|---------------------------------------------------|  C|--77-77--|
G|---------------------------------------------------|  G|--55-00--|
D|---------------------------------------------------|  D|---------|
        .         .         .     .     .     .


  Intro - Guitar 2 - 1x
D|------------------------------------------|
A|------------------------------------------|
F|------------------------------------------|
C|--4--4--2---------------------------------|
G|--2--2--0--5--5--4------2--2--4--5--5--7--|
D|-----------3--3--2--00--0--0--2--3--3--5--|
                      ..

D|----------------------------------------------|
A|----------------------------------------------|
F|----------------------------------------------|
C|--4--4--2------------------------------77-77--|
G|--2--2--0--5--5--4------2--2--4--5--5--55-00--|
D|-----------3--3--2--00--0--0--2--3--3---------|
                      ..

----------------------------------------------------------------------------------------

  Vers. Guitar 1. 4x
D|----------------------------0----|
A|------0-0-0-0-0----0----------0--|
F|---------------------------------|
C|-----4-4---------4---4----4------|
G|--2------2-----------------------|
D|-----------0-2-3--------5--------|

  Vers. Guitar 2. 2x
D|--5-5----------------|
A|------3-3-2-2-2h3-3--|
F|---------------------|
C|---------------------|
G|---------------------|
D|---------------------|


----------------------------------------------------------------------------------------


  Pre-Chorus. Guitar 1&2.
D|--------------------------------------------|
A|--------------------------------------------|
F|--------------------------------------------|
C|--5----5----5/7---7/9----7----7----7/9---4--|
G|--3----3----3/5---5/7----5----5----5/7---2--|
D|----00---00-----0-----5~---00---00-----0----|
      ..   ..     .          ..   ..     .

  Pre-Chorus. Guitar 1.
D|----------0--------------0------|
A|------0-----3-2-----0------3-2--|
F|--------------------------------|
C|----4---4---------4---4---------|
G|--2-------0-----2--------0------|
D|--------------------------------|

  Pre-Chorus. Guitar 2.
D|-------------------------------|
A|-------------------------------|
F|-------------------------------|
C|--4-4444-4-4444-4-4444-4-4444--|
G|--2-2222-2-2222-0h2222-2-2222--|
D|-------------------------------|

  Pre-Chorus. Guitar 1&2.
D|-------------------------------------------------|
A|-------------------------------------------------|
F|-------------------------------------------------|
C|--5----5----5/7---7/9----7----7----7/9---4-------|
G|--3----3----3/5---5/7----5----5----5/7---2-------|
D|----00---00-----0-----5~---00---00-----0---0000--|
      ..   ..     .          ..   ..     .   ....

----------------------------------------------------------------------------------------

  Chorus - Guitar 1 - 2x
D|----------0-------------0------|
A|------0-----3-2-----0-----3-2--|
F|-------------------------------|
C|----4---4---------4---4--------|
G|--2-------0-------------0------|
D|----------------3--------------|

  Chorus - Guitar 2 - 2x
D|--------------------------|
A|--------------------------|
F|--------------------------|
C|--3-3--2-2-2--------------|
G|--2-2--0-0-0--5-5--7-7-7--|
D|--------------3-3--5-5-5--|


----------------------------------------------------------------------------------------

  Vers2. Guitar 1. 4x
D|------------------------------0-----|
A|-------0-0-0-0------0------------0--|
F|------------------------------------|
C|-----4--4-4-4-----5---5-----7-------|
G|--2---------------------------------|
D|---------------3---------5----------|

  Vers2. Guitar 2. 2x
D|--5-5----------------|
A|------3-3-2-2-2h3-3--|
F|---------------------|
C|---------------------|
G|---------------------|
D|---------------------|


----------------------------------------------------------------------------------------


  Pre-Chorus2. Guitar 1&2.
D|--------------------------------------------|
A|--------------------------------------------|
F|--------------------------------------------|
C|--5----5----5/7---7/9----7----7----7/9---4--|
G|--3----3----3/5---5/7----5----5----5/7---2--|
D|----00---00-----0-----5~---00---00-----0----|
      ..   ..     .          ..   ..     .

  Pre-Chorus2. Guitar 1.
D|----------0--------------0------|
A|------0-----3-2-----0------3-2--|
F|--------------------------------|
C|----4---4---------4---4---------|
G|--2-------0-----2--------0------|
D|--------------------------------|

  Pre-Chorus2. Guitar 2.
D|-------------------------------|
A|-------------------------------|
F|-------------------------------|
C|--4-4444-4-4444-4-4444-4-4444--|
G|--2-2222-2-2222-0h2222-2-2222--|
D|-------------------------------|

  Pre-Chorus2. Guitar 1&2.
D|------------------------------------------|
A|------------------------------------------|
F|------------------------------------------|
C|--5----5----5/7---7/9----7----7----7/9-9--|
G|--3----3----3/5---5/7----5----5----5/7-7--|
D|----00---00-----0-----5~---00---00--------|
      ..   ..     .          ..   ..

----------------------------------------------------------------------------------------

  Chorus2 - Guitar 1 - 2x
D|----------0-------------0------|
A|------0-----3-2-----0-----3-2--|
F|-------------------------------|
C|----4---4---------4---4--------|
G|--2-------0-------------0------|
D|----------------3--------------|

  Chorus2 - Guitar 2 - 2x
D|--------------------------|
A|--------------------------|
F|--------------------------|
C|--3-3--2-2-2--------------|
G|--2-2--0-0-0--5-5--7-7-7--|
D|--------------3-3--5-5-5--|


----------------------------------------------------------------------------------------


  Breakdown - Guitar 1 - 2x
D|--------------------------------------------|
A|--------------------------------------------|
F|--------------------------------------------|
C|--------------------------------------------|
G|----------99999999777777775555555577779999--|
D|--00000000----------------------------------|

D|--------------------------------------------|
A|--------------------------------------------|
F|--------------------------------------------|
C|--------------------------------------------|
G|----------99999999777777775555555577779999--|
D|--33333333----------------------------------|

D|--------------------------------------------|
A|--------------------------------------------|
F|--------------------------------------------|
C|--------------------------------------------|
G|--2222222299999999777777775555555577779999--|
D|--------------------------------------------|

D|--------------------------------------------|
A|--------------------------------------------|
F|--------------------------------------------|
C|--------------------------------------------|
G|--0000000099999999777777775555555577779999--|
D|--------------------------------------------|

  Breakdown - Guitar 2 - 2x
D|-----------------------|
A|-----------------------|
F|-----------------------|
C|-------------3--3---3--|
G|--2--2---5---2--2---0--|
D|--0--0---3-------------|

----------------------------------------------------------------------------------------


   Outro - Guitar 1 - 6x
D|----------0-------------0------|
A|------0-----3-2-----0-----3-2--|
F|-------------------------------|
C|----4---4---------4---4--------|
G|--2-------0-------------0------|
D|----------------3--------------|


  Outro - Guitar 2 - 4x
D|--------------------------|
A|--------------------------|
F|--------------------------|
C|--3-3--2-2-2--------------|
G|--2-2--0-0-0--5-5--7-7-7--|
D|--------------3-3--5-5-5--|
  Outro - Guitar 2 - 2x
D|------------------------------------|
A|------------------------------------|
F|------------------------------------|
C|--3--3--2-2-2-----------------------|
G|--2--2--0-0-0--5----5----7---7---7--|
D|---00-00-0-0---3-33-3-33-5-5-5-5-5--|
     .. .. . .     ..   ..   .   .

----------------------------------------------------------------------------------------

P|ease rate and Comment!
Добавлено: 05.05.2012
Другие материалы по этой песне:

Страница создана 30.04.2012
http://primanota.ru/killswitch-engage/take-me-away-chords.htm
Привет, Гость.
Предлагаем пройти революционный курс по гитаре.
Подарок от PrimaNota.Ru, забирай!