PrimaNota.ru - самый крупный в мире бесплатный архив песенных текстов, аккордов, табулатур и нот


Killswitch Engage - In Due Time - текст песни, таба, видео

Регистрация Запомнить меня
Войти через:  Facebook Google Twitter Vk Yandex Mail.ru

Killswitch Engage - In Due Time - текст песни, таба, видео

Печатать
Просмотров: 454
KILLSWITCH ENGAGE 

IN DUE TIME SOLO

CGCFAD

TABBED BY andherembrace


2:28

   _______     ~~~~~~       __
---)      (---)------------/  \------------------------------|
-13---17----13-----------10-11-10----------------------------|
---------------------------------10----10-10/12~~-10--10\9~~-|
------------------------------------10-----------------------|
-------------------------------------------------------------|
-------------------------------------------------------------|
      T                              *  *




    _      _      _      _      _      _      _      _
---/ \----/ \----/ \----/ \----/ \----/ \----/ \----/ \---|
-10-3-6-10-3-6-10-3-6-10-3-6-13-3-6-13-3-6-13-3-6-13-3-6--|
----------------------------------------------------------|
----------------------------------------------------------|
----------------------------------------------------------|
----------------------------------------------------------|
  T      T      T      T      T      T      T      T


    _       _       _       _       _       _       _       _
---/ \-----/ \-----/ \-----/ \-----/ \-----/ \-----/ \-----/ \---|
-13-6-10-13-6-10-13-6-10-13-6-10-11-6-10-11-6-10-11-6-10-11-6-10-|
-----------------------------------------------------------------|
-----------------------------------------------------------------|
-----------------------------------------------------------------|
-----------------------------------------------------------------|
  T      T       T        T       T       T       T       T

    _       _       _       _       _       _       _       _
---/ \-----/ \-----/ \-----/ \-----/ \-----/ \-----/ \-----/ \---|
-15-6-11-15-6-11-15-6-11-15-6-11-18-6-11-18-6-11-18-6-11-18-6-11-|
-----------------------------------------------------------------|
-----------------------------------------------------------------|
-----------------------------------------------------------------|
-----------------------------------------------------------------|
  T      T       T        T       T       T       T       T


    _       _       _       _       _       _       _       _
---/ \-----/ \-----/ \-----/ \-----/ \-----/ \-----/ \-----/ \---|
-18-8-13-18-8-13-18-8-13-18-8-13-17-8-13-17-8-13-17-8-13-17-8-13-|
-----------------------------------------------------------------|
-----------------------------------------------------------------|
-----------------------------------------------------------------|
-----------------------------------------------------------------|
  T      T       T        T       T       T       T       T

   ___
   )  (   )~~~   )(^           )(^
-15-----15-----15---13-------17---15---^------------------------------------|
-----------------------15~~~---------18-15-15\10-10/13-13/15-15/17-17/13~~~-|
----------------------------------------------------------------------------|
----------------------------------------------------------------------------|
----------------------------------------------------------------------------|
----------------------------------------------------------------------------|




---------------------------------------------------|
-------10-------10-------13-------13-------13------|
----10-------10-------14-------14-------14----14---|
-12-------12-------15-------15-------15------------|
---------------------------------------------------|
---------------------------------------------------|
  *  *    *   *     *  *     *  *     *  *      

---------------------------------------------------|
-------13-------13-------17-----15-----13----------|
----14-------14-------14------------------15-14----|
-15-------15-------15-------15------15-------------|
---------------------------------------------------|
---------------------------------------------------|
  *  *     *  *     *  *     *       *
Добавлено: 15.07.2013
Другие материалы по этой песне:

Страница создана 02.06.2013
http://primanota.ru/killswitch-engage/in-due-time-chords.htm
Привет, Гость.
Предлагаем пройти революционный курс по гитаре.
Подарок от PrimaNota.Ru, забирай!