PrimaNota.ru - самый крупный в мире бесплатный архив песенных текстов, аккордов, табулатур и нот


Killswitch Engage - Eye Of The Storm - текст песни, таба, бас-таба, видео

Регистрация Запомнить меня
Войти через:  Facebook Google Twitter Vk Yandex Mail.ru

Killswitch Engage - Eye Of The Storm - текст песни, таба, бас-таба, видео

Печатать
Просмотров: 211
Уроки эстрадного вокала в Санкт-Петербурге
Song: Eye of the Storm
Band: Killswitch Engage
Album: As Daylight Dies  [2006]

Drop C Tuning

***Download my Power Tab version***

Ok, I was tired of this song not being tabbed, This is how I play it and it sounds 100%
me but feel free to make corrections or e-mail me at HHM2189@aol.com


Intro:

 Gtr. I:  (00:00)
|---------------------------------------------------|
|---------------------------------------------------|
|---------------------------------------------------|
|--------------------------------------------0~~~~--|
|---0--------0--------0------0------0--/12\--0~~~~--|
|---0--------0--------0------0------0--/12\--0~~~~--|
pm  .        .        .      .      .

|---------------------------------------------------|
|---------------------------------------------------|
|-----------------------------------------7---------|
|~~~~~~~~~~~~~~~~~~~~~~~~~~~~~~~~~~~~~~-------------|
|~~~~~~~~~~~~~~~~~~~~~~~~~~~~~~~~~~~~~~------0-0-0--|
|~~~~~~~~~~~~~~~~~~~~~~~~~~~~~~~~~~~~~~------0-0-0--|
                                             . . .

 Gtr. II:  (00:00)
|-----------------------------------------------------|
|-----------------------------------------------------|
|-----------------------------------------------------|
|------------3h5--------------------------------------|
|---3h5---------------3h5----5h6------3h5------1h3----|
|-------0000-----0000-----00-----0000-----0000--------|
pm      ....     ....     ..     ....     ....

|---------------------------------------------------|
|---------------------------------------------------|
|-----------------------------------------7---------|
|-------------3h5-----------------------------------|
|----3h5---------------3h5----5h6------------0-0-0--|
|-00-----0000-----0000-----00-----000000-----0-0-0--|
  ..     ....     ....     ..     ......     . . .


Verse: x2

 Gtrs. I & II  (00:06)
|-----------------------------------------------------|
|-----------------------------------------------------|
|-----------------------------------------------------|
|------------3h5--------------------------------------|
|---3h5---------------3h5----5h6------3h5------1h3----|
|-------0000-----0000-----00-----0000-----0000--------|
pm      ....     ....     ..     ....     ....

|---------------------------------------------------|
|---------------------------------------------------|
|-----------------------------------------7---------|
|-------------3h5-----------------------------------|
|----3h5---------------3h5----5h6------------0-0-0--|
|-00-----0000-----0000-----00-----000000-----0-0-0--|
  ..     ....     ....     ..     ......     . . .


Pre-Chorus:

 Gtr. I: x4
 Gtr.II: x2  (00:19)
|-------------------------------------------------------------|
|-------------------------------------------------------------|
|--7\\\-------------------------------------------------------|
|--7\\\---------------7---------10\\\---------------7---------|
|--5\\\---000-------007-000-00---8\\\---000-------007-000-00--|
|---------000-------007-000-00---8\\\---000-------007-000-00--|
pm        ...       ..  ... ..          ...       ..  ... ..


 Gtr.II: x2  (00:32)          (This is all could I really hear)
|-------------------------------------------------------------|
|-------------------------------------------------------------|
|-------------------------------------------------------------|
|-------------------------------------------------------------|
|--8-----7-----8-----7----------8-----7-----8-----7-----------|
|---75757-75757-75757-7575757----75757-75757-75757-7575757----|


Verse: x2  (00:44)


Chorus:

 Gtr. I:  (00:56)
|-----------------------------------------------------|
|-----------------------------------------------------|
|-----------------------------------------------------|
|--------------------5-----------0~~------------------|
|--5-----7-----8-----------5-7-8-0~~-00000000000000---|
|----8-8---8-8---8-8---8-8-------0~~-00000000000000---|
pm   . .   . .   . .   . .           ..............

                                         1st time|           2nd time|
|-------------------------------|----------------|-------------------|
|-------------------------------|----------------|-------------------|
|-------------------------------|----------------|-------------------|
|--8---8---8----10----10-----0~~|----------------|--------1010101010-|
|--8-8-8-8-8-8--10-10-10-10--0~~|-00000000000000-|-000000-1010101010-|
|--8-8-8-8-8-8--10-10-10-10--0~~|-00000000000000-|-000000-1010101010-|
pm   .   .   .      .     .       ..............   ......


 Gtr. II:  (00:56)
|-------------------------------------------------------|
|-------------------------------------------------------|
|-------------------------------------------------------|
|----------------------8-------------0~~----------------|
|--8-----10-----12-----------8-10-12-0~~-00000000000000-|
|----8-8----8-8----8-8---8-8---------0~~-00000000000000-|
pm   . .    . .    . .   . .             ..............

                                         1st time|           2nd time|
|--8--------------8-------------|----------------|-------------------|
|-------6---5---------6--5------|----------------|-------------------|
|-------------------------------|----------------|-------------------|
|----------------------------0~~|----------------|--------1010101010-|
|----------------------------0~~|-00000000000000-|-000000-1010101010-|
|----------------------------0~~|-00000000000000-|-000000-1010101010-|
pm                                ..............   ......


Pre-Chorus:  (01:32)


Chorus:           2nd time ends a little different from the 1st Chorus-|
                                                                       |
 Gtr. I:  (01:46)                                                      |
|-----------------------------------------------------|                |
|-----------------------------------------------------|                |
|-----------------------------------------------------|                |
|--------------------5-----------0~~------------------|                |
|--5-----7-----8-----------5-7-8-0~~-00000000000000---|                |
|----8-8---8-8---8-8---8-8-------0~~-00000000000000---|                |
pm   . .   . .   . .   . .           ..............                    |
                                                                       |
                                         1st time|        2nd time|    |
|-------------------------------|----------------|----------------|    |
|-------------------------------|----------------|----------------|    |
|-------------------------------|----------------|----------------| <--|
|--8---8---8----10----10-----0~~|----------------|----------------|    |
|--8-8-8-8-8-8--10-10-10-10--0~~|-00000000000000-|-00000000000000-|    |
|--8-8-8-8-8-8--10-10-10-10--0~~|-00000000000000-|-00000000000000-|    |
pm   .   .   .      .     .       ..............   ..............      |
                                                                       |
                                                                       |
 Gtr. II:  (01:46)                                                     |
|-------------------------------------------------------|              |
|-------------------------------------------------------|              |
|-------------------------------------------------------|              |
|----------------------8-------------0~~----------------|              |
|--8-----10-----12-----------8-10-12-0~~-00000000000000-|              |
|----8-8----8-8----8-8---8-8---------0~~-00000000000000-|              |
pm   . .    . .    . .   . .             ..............                |
                                                                       |
                                         1st time|       2nd time|     |
|--8--------------8-------------|----------------|---------------|    ---|
|-------6---5---------6--5------|----------------|---------------|    ---|
|-------------------------------|----------------|---------------|    ---|
|----------------------------0~~|----------------|---------------| <-----|
|----------------------------0~~|-00000000000000-|-0000000000000---------|
|----------------------------0~~|-00000000000000-|-0000000000000---------|
pm                                ..............   .............


Breakdown: Bass play

 Gtrs. I & II:  (02:11)
|----------------------------------------------------|
|----------------------------------------------------|
|----------------------------------------------------|
|--0~~~~~~~~~~~~~~~~~~~~~~~~~~~~~~~~~~~~~~~~~~~~~~~~-|
|--0~~~~(let ring)~~~~~~~~~~~~~~~~~~~~~~~~~~~~~~~~~~-|
|--0~~~~~~~~~~~~~~~~~~~~~~~~~~~~~~~~~~~~~~~~~~~~~~~~-|

|----------------------------------------------------|
|----------------------------------------------------|
|--------------------------------------------7-------|
|--~~~~~~~~~~~~~~~~~~~~~~~~~~~~~~~~------------------|
|--~~~~~~~~~~~~~~~~~~~~~~~~~~~~~~~~12\\\\\-----0-0-0-|
|--~~~~~~~~~~~~~~~~~~~~~~~~~~~~~~~~12\\\\\-----0-0-0-|
pm                                             . . .


Breakdown: Guitars Join

 Gtr. I: x4
 Gtr.II: x2  (2:24)
|----------------------------------------------------------------|
|----------------------------------------------------------------|
|----------------------------------------------------------------|
|----5/7---------5/7---7/8----------5/7---------5/7---3/5--------|
|----3/5---3h5---3/5---5/6--0000----3/5---3h5---3/5---1/3-1111---|
|--0-----0-3h5-0-----0------0000--0-----0-3h5-0-----0-----1111---|
pm .     .     .     .      ....  .     .     .     .     ....


 Gtr.II: x2  (02:37)
|----------------------------------------------------------------|
|----------------------------------------------------------------|
|----------------------------------------------------------------|
|----------------------------------------------------------------|
|--0-0-0-0-0-0-0-0-0-0-0-0-0-0-0-0-0-0-0-0-0-0-0-5-5-5-5-1-1-1-1-|
|--0-0-0-0-0-0-0-0-0-0-0-0-0-0-0-0-0-0-0-0-0-0-0-5-5-5-5-1-1-1-1-|
pm . . . . . . . . . . . . . . . . . . . . . . . . . . . . . . .


Chorus: Revisited

 Gtr. I:  (02:50)
|--------------------------------------------------------------|
|--------------------------------------------------------------|
|--------------------------------------------------------------|
|----------------7h8--7h8p7----------------0~~-----------------|
|--5-----7---8--------------10-8-10-8-7----0~~-00000000000000--|
|----8-8---8---8------------------------10-0~~-00000000000000--|
pm   . .   .   .                               ..............
                                                                            |--|
|------------------------------------------------------------------------------|
|------------------------------------------------------------------------------|
|--8---8---8----10----10-----0~~-----------------------------------------------|
|--8-8-8-8-8-8--10-10-10-10--0~~--00000000000000-------------------------------|
|--8-8-8-8-8-8--10-10-10-10--0~~--00000000000000-------------------------------|
pm   .   .   .      .     .       ..............

|-----------------------------------------------------|
|-----------------------------------------------------|
|-----------------------------------------------------|
|--------------------5-----------0~~------------------|
|--5-----7-----8-----------5-7-8-0~~-00000000000000---|
|----8-8---8-8---8-8---8-8-------0~~-00000000000000---|
pm   . .   . .   . .   . .           ..............

|--------------------------------------------------------|
|--------------------------------------------------------|
|--------------------------------------------------------|
|--8---8---8----10----10-----0~~---------8-7-5-3-7-5-3-2-|
|--8-8-8-8-8-8--10-10-10-10--0~~--000000-8-7-5-3-7-5-3-2-|
|--8-8-8-8-8-8--10-10-10-10--0~~--000000-8-7-5-3-7-5-3-2-|
pm   .   .   .      .     .       ...... . . . . . . . .

 Gtr.II:  (02:50)
|---------------------------------------------------------------------|
|---------------------------------------------------------------------|
|---------------------------------------------------------------------|
|-----------------10h12--10h12p10------------------0~~----------------|
|--8-----10---12------------------13-12-13-12-10-7-0~~-00000000000000-|
|----8-8----8--------------------------------------0~~-00000000000000-|
pm   . .    .                                          ..............

|--8--------------8------------------------------|
|-------6---5---------6--5-----------------------|
|------------------------------------------------|
|----------------------------0~~-----------------|
|----------------------------0~~--00000000000000-|
|----------------------------0~~--00000000000000-|
pm                                ..............

|-------------------------------------------------------|
|-------------------------------------------------------|
|-------------------------------------------------------|
|----------------------8-------------0~~----------------|
|--8-----10-----12-----------8-10-12-0~~-00000000000000-|
|----8-8----8-8----8-8---8-8---------0~~-00000000000000-|
pm   . .    . .    . .   . .             ..............

|--8--------------8--------------------------------------|
|-------6---5---------6--5-------------------------------|
|--------------------------------------------------------|
|----------------------------0~~---------8-7-5-3-7-5-3-2-|
|----------------------------0~~--000000-8-7-5-3-7-5-3-2-|
|----------------------------0~~--000000-8-7-5-3-7-5-3-2-|
pm                                ...... . . . . . . . .

 *****Breakdown but a little slower******
 Gtrs. I & II: (03:13)
|----------------------------------------------------------------|
|----------------------------------------------------------------|
|----------------------------------------------------------------|
|----5/7---------5/7---7/8----------5/7---------5/7---3/5--------|
|----3/5---3h5---3/5---5/6--0000----3/5---3h5---3/5---1/3-1111---|
|--0-----0-3h5-0-----0------0000--0-----0-3h5-0-----0-----1111---|
pm .     .     .     .      ....  .     .     .     .     ....

|-----------------------------------------------------------------|
|-----------------------------------------------------------------|
|-----------------------------------------------------------------|
|----5/7---------5/7---7/8----------5/7----------8-7-5-3-7-5-3-2--|
|----3/5---3h5---3/5---5/6--0000----3/5---3h5----8-7-5-3-7-5-3-2--|
|--0-----0-3h5-0-----0------0000--0-----0-3h5-00-8-7-5-3-7-5-3-2--|
pm .     .     .     .      ....  .     .     .. . . . . . . . .

Outro:

 Gtrs. I & II: x2  (03:31)
|------------------------------------------------------------------|
|------------------------------------------------------------------|
|------------------------------------------------------------------|
|------------------------------------------------------------------|
|-0-0-0-0-0-0-0-0-0-0-0-0-0-0-0-0-0-0-0-0-0-0-0-0-5-5-5-5-1-1-1-1--|
|-0-0-0-0-0-0-0-0-0-0-0-0-0-0-0-0-0-0-0-0-0-0-0-0-5-5-5-5-1-1-1-1--|
pm. . . . . . . . . . . . . . . . . . . . . . . . . . . . . . . .
|--------------------------------------------|
|--------------------------------------------|
|--------------------------------------------|
|--8--7--5--3---7---5---3---2---0~~~---------|
|--8--7--5--3---7---5---3---2---0~~~---------|
|--8--7--5--3---7---5---3---2---0~~~---------|
pm .  .  .  .   .   .   .   .

Easy song to learn, Kick-ass song to play. Enjoy.   :)

Harrison Martin
Добавлено: 20.11.2013
Другие материалы по этой песне:

Страница создана 13.04.2012
http://primanota.ru/killswitch-engage/eye-of-the-storm-chords.htm
Привет, Гость.
Предлагаем пройти революционный курс по гитаре.
Подарок от PrimaNota.Ru, забирай!