PrimaNota.ru - самый крупный в мире бесплатный архив песенных текстов, аккордов, табулатур и нот


Killswitch Engage - The Call - таба, видео

Регистрация Запомнить меня
Войти через:  Facebook Google Twitter Vk Yandex Mail.ru

Killswitch Engage - The Call - таба, видео

Печатать
Просмотров: 116


KILLSWITCH ENGAGE

THE CALL

C-G-C-F-A-D


TABBED BY andherembrace



-------------------------------------------------------------------------|
-------------------------------------------------------------------------|
-------------------------------------------------------------------------|
-------------------------------------------------------------------------|
-0-10-----8--------------------------------------------------------------|
-0-10-000-8--13-12-0-0-0-0-13-12-0-0-0-0-13-12-0-0-0-0-17-15-13-12-13-15-|
      ***     *  * * * * *  *  * * * * *  *  * * * * *  *  *  *  *  *  * 

-------------------------------------------|
-------------------------------------------|
-------------------------------------------|
-------------------------------------------|
-----------------------------10-12------8--|
-13-12-0-0-0-0-13-12-0-0-0-0-10-12--000-8--|
  *  * * * * *  *  * * * * *        ***


0:05

--------------------------------------------------------------|
--------------------------------------------------------------|
--------------------------------------------------------------|
--------------------------------------------------------------|
--------------------------------------------------------------|
-13-12-0-0-0-0-13-12-0-0-0-0-13-12-0-0-0-0-17-15-13-12-13-15--|
  *  * * * * *  *  * * * * *  *  * * * * *  *  *  *  *  *  *

--------------------------------------------------------|
--------------------------------------------------------|
--------------------------------------------------------|
--------------------------------------------------------|
-----------------------------10-12------8--12-----------|
-13-12-0-0-0-0-13-12-0-0-0-0-10-12--000-8-----15-15-15--|
  *  * * * * *  *  * * * * *        ***     *  *  *  *




0:10

--------------------------------------------------------------|
--------------------------------------------------------------|
--------------------------------------------------------------|
--------------------------------------------------------------|
--------------------------------------------------------------|
-13-12-0-0-0-0-13-12-0-0-0-0-13-12-0-0-0-0-17-15-13-12-13-15--|
  *  * * * * *  *  * * * * *  *  * * * * *  *  *  *  *  *  *

-------------------------------------------|
-------------------------------------------|
-------------------------------------------|
-------------------------------------------|
-----------------------------10-12------8--|
-13-12-0-0-0-0-13-12-0-0-0-0-10-12--000-8--|
  *  * * * * *  *  * * * * *        ***     


--------------------------------------------------------------|
--------------------------------------------------------------|
--------------------------------------------------------------|
--------------------------------------------------------------|
--------------------------------------------------------------|
-13-12-0-0-0-0-13-12-0-0-0-0-13-12-0-0-0-0-17-15-13-12-13-15--|
  *  * * * * *  *  * * * * *  *  * * * * *  *  *  *  *  *  *

-------------------------------------------|
-------------------------------------------|
-------------------------------------------|
-------------------------------------------|
-----------------------------10-12------8--|
-13-12-0-0-0-0-13-12-0-0-0-0-10-12--000-8--|
  *  * * * * *  *  * * * * *        ***     


----------------------------------------------------------------|
----------------------------------------------------------------|
----------------------------------------------------------------|
----------------------------------------------------------------|
-12-----------5-8---------5-8---------3-5--0--------3-5---------|
----15-15-15--5-8--0-0-0--5-8--0-0-0--3-5----1-1-1--3-5--0-0-0--|
  *  *  *  *       * * *       * * *       * * * *       * * * 





0:23


-------------------------------------------------------------------|
-------------------------------------------------------------------|
--------------------------------------------------------------_----|
----------------------------7-5---8--------------------------/ \---|
----------------------------5\3---6-----------------8---6---5-6-5--|
-0-0000000--0000000--000000-----0---6666666--666666---6---6--------|
   *******  *******  ******     *   *******  ******   *   *


------------------------------------------------------------------|
------------------------------------------------------------------|
------------------------------------------------------------------|
----------------------------7-5---8-------------------------------|
----------------------------5\3---6-----------------8---6-----3---|
-0-0-00000--0000000--000000-----0---6666666--666666---6---3-3---3-|
     *****  *******  ******     *   *******  ******   *     *   




-------------------------------------------------------------------|
-------------------------------------------------------------------|
--------------------------------------------------------------_----|
----------------------------7-5---8--------------------------/ \---|
----------------------------5\3---6-----------------8---6---5-6-5--|
-0-0-00000--0000000--000000-----0---6666666--666666---6---6--------|
     *****  *******  ******     *   *******  ******   *   *


-------------------------------------------------------------------|
-------------------------------------------------------------------|
-------------------------------------------------------------------|
----------------------------7-5---8--------------------------------|
----------------------------5\3---6-----------------8---6-----3----|
-0-0-00000--0000000--000000-----0---6666666--666666---6---3-3---3-0|
     *****  *******  ******     *   *******  ******   *     * 




0:41



1 W/PITCH SHIFTER SET FOR +1 OCTAVE + DELAY SET FOR 2s.APPROX.
-------------------------------------------------------------------------|
-------------------------------------------------------------------------|
-///------------///--///----------///---///----------///--///------------|
--8--------------7----8-----------10----12------------7----8-------------|
-------------------------------------------------------------------------|
-------------------------------------------------------------------------|

2
-------------------------------------------------------------------------|
-------------------------------------------------------------------------|
-------------------------------------------------------------------------|
-///-------------///--///---------///--///----------///--///-------------|
--1---------------3----5-----------8----1------------3----5----------\---|
--1---------------3----5-----------8----1------------3----5----------\---|






0:50

-------------------------------------------------------------------------|
-------------------------------------------------------------------------|
-------------------------------------------------------------------------|
-------------------------------------------------------------------------|
-0-10-----8--------------------------------------------------------------|
-0-10-000-8--13-12-0-0-0-0-13-12-0-0-0-0-13-12-0-0-0-0-17-15-13-12-13-15-|
      ***     *  * * * * *  *  * * * * *  *  * * * * *  *  *  *  *  *  * 

-------------------------------------------|
-------------------------------------------|
-------------------------------------------|
-------------------------------------------|
-----------------------------10-12------8--|
-13-12-0-0-0-0-13-12-0-0-0-0-10-12--000-8--|
  *  * * * * *  *  * * * * *        ***




--------------------------------------------------------------|
--------------------------------------------------------------|
--------------------------------------------------------------|
--------------------------------------------------------------|
--------------------------------------------------------------|
-13-12-0-0-0-0-13-12-0-0-0-0-13-12-0-0-0-0-17-15-13-12-13-15--|
  *  * * * * *  *  * * * * *  *  * * * * *  *  *  *  *  *  *

-------------------------------------------------|
-------------------------------------------------|
-------------------------------------------------|
-------------------------------------------------|
-----------------------------10-12------8---\----|
-13-12-0-0-0-0-13-12-0-0-0-0-10-12--000-8---\----|
  *  * * * * *  *  * * * * *        ***     





1:00

-------------------------------------------------------------------|
-------------------------------------------------------------------|
--------------------------------------------------------------_----|
----------------------------7-5---8--------------------------/ \---|
----------------------------5\3---6-----------------8---6---5-6-5--|
-0-0000000--0000000--000000-----0---6666666--666666---6---6--------|
   *******  *******  ******     *   *******  ******   *   *


------------------------------------------------------------------|
------------------------------------------------------------------|
------------------------------------------------------------------|
----------------------------7-5---8-------------------------------|
----------------------------5\3---6-----------------8---6-----3---|
-0-0-00000--0000000--000000-----0---6666666--666666---6---3-3---3-|
     *****  *******  ******     *   *******  ******   *     * 


-------------------------------------------------------------------|
-------------------------------------------------------------------|
--------------------------------------------------------------_----|
----------------------------7-5---8--------------------------/ \---|
----------------------------5\3---6-----------------8---6---5-6-5--|
-0-0-00000--0000000--000000-----0---6666666--666666---6---6--------|
     *****  *******  ******     *   *******  ******   *   *


-------------------------------------------------------------------|
-------------------------------------------------------------------|
-------------------------------------------------------------------|
----------------------------7-5---8--------------------------------|
----------------------------5\3---6-----------------8---6-----3----|
-0-0-00000--0000000--000000-----0---6666666--666666---6---3-3---3-0|
     *****  *******  ******     *   *******  ******   *     * 







1:17


1 W/PITCH SHIFTER SET FOR +1 OCTAVE + DELAY SET FOR 2s.APPROX.
-------------------------------------------------------------------------|
-------------------------------------------------------------------------|
-///------------///--///----------///---///----------///--///------------|
--8--------------7----8-----------10----12------------7----8-------------|
-------------------------------------------------------------------------|
-------------------------------------------------------------------------|

2
-------------------------------------------------------------------------|
-------------------------------------------------------------------------|
-------------------------------------------------------------------------|
-///-------------///--///---------///--///----------///--///-------------|
--1---------------3----5-----------8----1------------3----5----------\---|
--1---------------3----5-----------8----1------------3----5----------\---|






1:26


----------------------------------------------------------------|
----------------------------------------------------------------|
----------------------------------------------------------------|
-----5-----5-----8-----5---7---------7-----7-----7/8---7--------|
-5-------5-----5-----5-------------5-----5-----5-----------5----|
-5-5---5-----5-----5-----5---5--4~-----4-----4-------4---4---4--|
   *   * *   * *   * *   *   *         * *   * *     *   *   *


---------------------------------|
---------------------------------|
---------------------------------|
---------------------------------|
-1----1---1-3---------3-----5-6--|
-1--1---1-----1--3~-3---3-3------|
        *     *           *




----------------------------------------------------------------|
----------------------------------------------------------------|
----------------------------------------------------------------|
-----5-----5-----8-----5---7---------7-----7-----7/8---7--------|
-5-------5-----5-----5-------------5-----5-----5-----------5----|
-5-5---5-----5-----5-----5---5--4~-----4-----4-------4---4---4--|
   *   * *   * *   * *   *   *         * *   * *     *   *   *


------------------------------------------------------------|
------------------------------------------------------------|
------------------------------------------------------------|
------------------------------------5-----5---5-------------|
-1----1---1-3---------3-----5-6-5-------5-----5----\--0-----|
-1--1---1-----1--3~-3---3-3-----5-5---5-----5-5----\--0-----|
        *     *           *       *   * *   *         *






1:41

                  GT 2 HOLDS POWER CHORD
-------------------|----------------------------|----------|
-----------------------------------------------------------|
-----------------------------------------------------------|
-5--------5-----5--5---------------------------------^-----|
-1--------1-----1--1------5-6-5-------5-6-5-----3---3-5----|
-1--1--1--1--1--1--1--1-8-------8-5-8-------8-5---3--------|
    *  *     *        * * * * * * * * * * * * *   *



----------------------------------------------|
----------------------------------------------|
----------------------------------------------|
-8--------8-----8--7--------8--8-----3---3-3--|
-5--------5-----5--5--------5--5-----3---3-3--|
-5--5--5--5--5--5--5--5--5--5--5--5--3---3-3--|
    *  *     *        *  *        *




-----------------------------------------------------------|
-----------------------------------------------------------|
-----------------------------------------------------------|
-5--------5-----5--5---------------------------------^-----|
-1--------1-----1--1------5-6-5-------5-6-5-----3---3-5----|
-1--1--1--1--1--1--1--1-8-------8-5-8-------8-5---3--------|
    *  *     *        * * * * * * * * * * * * *   *


1
----------------------------------------------|
----------------------------------------------|
----------------------------------------------|
-8--------8-----8--7--------8--8-----3---3-3--|
-5--------5-----5--5--------5--5-----3---3-3--|
-5--5--5--5--5--5--5--5--5--5--5--5--3---3-3--|
    *  *     *        *  *        *





1:58

1
-----------------------------------------------------------|
-----------------------------------------------------------|
-----------------------------------------------------------|
-5--------5-----5--5---------------------------------^-----|
-1--------1-----1--1------5-6-5-------5-6-5-----3---3-5----|
-1--1--1--1--1--1--1--1-8-------8-5-8-------8-5---3--------|
    *  *     *        * * * * * * * * * * * * *   *

2
---------------------------------------------------------------|
---------------------------------------------------------------|
---------------------------------------------------------------|
-----------------------------------------------------------^---|
-1--------1-----1--1-------8-10-8---------8-10-8------10--8-10-|
-1--1--1--1--1--1--1--1-12--------12-8-12--------12-8---8------|
    *  *     *        *  * *  * *  * *  * *  * *  * *   *


----------------------------------------------|
----------------------------------------------|
----------------------------------------------|
-8--------8-----8--7--------8--8-----3---3-3--|
-5--------5-----5--5--------5--5-----3---3-3--|
-5--5--5--5--5--5--5--5--5--5--5--5--3---3-3--|
    *  *     *        *  *        *



1
-----------------------------------------------------------|
-----------------------------------------------------------|
-----------------------------------------------------------|
-5--------5-----5--5---------------------------------^-----|
-1--------1-----1--1------5-6-5-------5-6-5-----3---3-5----|
-1--1--1--1--1--1--1--1-8-------8-5-8-------8-5---3--------|
    *  *     *        * * * * * * * * * * * * *   *

2
---------------------------------------------------------------|
---------------------------------------------------------------|
---------------------------------------------------------------|
-----------------------------------------------------------^---|
-1--------1-----1--1-------8-10-8---------8-10-8------10--8-10-|
-1--1--1--1--1--1--1--1-12--------12-8-12--------12-8---8------|
    *  *     *        *  * *  * *  * *  * *  * *  * *   *



----------------------------------------------|
----------------------------------------------|
----------------------------------------------|
-8--------8-----8--7--------8--8-----3---3----|
-5--------5-----5--5--------5--5-----3---3----|
-5--5--5--5--5--5--5--5--5--5--5--5--3---3----|
    *  *     *        *  *        *





2:15


  W/PITCH SHIFTER SET FOR +1 OCTAVE + DELAY SET FOR 2s.APPROX.
-------------------------------------------------------------------------|
-------------------------------------------------------------------------|
-///------------///--///----------///---///----------///--///------------|
--8--------------7----8-----------10----12------------7----8-------------|
-------------------------------------------------------------------------|
-------------------------------------------------------------------------|

2
-------------------------------------------------------------------------|
-------------------------------------------------------------------------|
-------------------------------------------------------------------------|
------------------------------------------------------------------P------|
-------------------------------------------------------------------S-----|
--------------------------------------------------------------------\----|



1 W/PITCH SHIFTER SET FOR +1 OCTAVE + DELAY SET FOR 2s.APPROX.
-------------------------------------------------------------------------|
-------------------------------------------------------------------------|
-///------------///--///----------///---///----------///--///------------|
--8--------------7----8-----------10----12------------7----8-------------|
-------------------------------------------------------------------------|
-------------------------------------------------------------------------|

2
-------------------------------------------------------------------------|
-------------------------------------------------------------------------|
-------------------------------------------------------------------------|
-///-------------///--///---------///--///----------///--///-------------|
--1---------------3----5-----------8----1------------3----5----------\---|
--1---------------3----5-----------8----1------------3----5----------\---|





3:32

----------------------------------------------------------------|
----------------------------------------------------------------|
----------------------------------------------------------------|
-----5-----5-----8-----5---7---------7-----7-----7/8---7--------|
-5-------5-----5-----5-------------5-----5-----5-----------5----|
-5-5---5-----5-----5-----5---5--4~-----4-----4-------4---4---4--|
   *   * *   * *   * *   *   *         * *   * *     *   *   *


---------------------------------|
---------------------------------|
---------------------------------|
---------------------------------|
-1----1---1-3---------3-----5-6--|
-1--1---1-----1--3~-3---3-3------|
        *     *           *

----------------------------------------------------------------|
----------------------------------------------------------------|
----------------------------------------------------------------|
-----5-----5-----8-----5---7---------7-----7-----7/8---7--------|
-5-------5-----5-----5-------------5-----5-----5-----------5----|
-5-5---5-----5-----5-----5---5--4~-----4-----4-------4---4---4--|
   *   * *   * *   * *   *   *         * *   * *     *   *   *


---------------------------------|
---------------------------------|
---------------------------------|
---------------------------------|
-1----1---1-3---------3-----5-6--|
-1--1---1-----1--3~-3---3-3------|
        *     *           *


---------------------------------------|
---------------------------------------|
---------------------------------------|
-----5-----5-----8-----5---7-7-5-------|
-5-------5-----5-----5---------5-\-----|
-5-5---5-----5-----5-----5-----5-\-----|
   *   * *   * *   * *   *
Добавлено: 26.06.2013
Другие материалы по этой песне:

Страница создана 26.06.2013
http://primanota.ru/killswitch-engage/the-call-chords.htm
Привет, Гость.
Предлагаем пройти революционный курс по гитаре.
Подарок от PrimaNota.Ru, забирай!