PrimaNota.ru - самый крупный в мире бесплатный архив песенных текстов, аккордов, табулатур и нот


Killswitch Engage - Slave To The Machine - таба, видео

Регистрация Запомнить меня
Войти через:  Facebook Google Twitter Vk Yandex Mail.ru

Killswitch Engage - Slave To The Machine - таба, видео

Печатать
Просмотров: 120
KILLSWITCH ENGAGE

SLAVE TO THE MACHINE

C-G-C-F-A-D

TABBED BY andherembrace





-------------------------------------------------------------|
-------------------------------------------------------------|
-------------------------------------------------------------|
-------------------3-5--------------------------5-----8------|
-\--0--5-7-5-8-5-7-3-5-------3-5-0--5-7-5-8-5-7-3-----6------|
-\--0--5-7-5-8-5-7-3-5-0-0-0-3-5-0--5-7-5-8-5-7---0-0---0-0--|
                       * * *                      * *   * *


1
-------------------------------------------------------------|
-------------------------------------------------------------|
-------------------------------------------------------------|
----------------3-5---------------------P--------------------|
-0--5-7-5-8-5-7-3-5-------3-5-0--5-7-5---S---1---4---3---1---|
-0--5-7-5-8-5-7-3-5-0-0-0-3-5-0--5-7-5----\--1-0-4-0-3-0-1-0-|
                      * * *                    *   *   *   *
2
-------------------------------------------------------------|
-------------------------------------------------------------|
-------------------------------------------------------------|
(5)-------------------------------------P--------------------|
-----------------------------------------S---1---4---3---1---|
------------------------------------------\--1-0-4-0-3-0-1-0-|
 H                                             *   *   *   *




0:11


1
----------------------------------------------------------|
----------------------------------------------------------|
----------------------------------------------------------|
----------------3-5--------------------------5-----8------|
-0--5-7-5-8-5-7-3-5-------3-5-0--5-7-5-8-5-7-3-----6------|
-0--5-7-5-8-5-7-3-5-0-0-0-3-5-0--5-7-5-8-5-7---0-0---0-0--|
                    * * *                      * *   * *
2
----------------------------------------------------------|
----------------------------------------------------------|
----------------5-7--------------------------5-----8------|
----------------3-5--------------------------5-----8------|
-0--5-7-5-8-5-7-3-5-------3-5-0--5-7-5-8-5-7-3-----6------|
-0--5-7-5-8-5-7-3-5-0-0-0-3-5-0--5-7-5-8-5-7---0-0---0-0--|
                    * * *                      * *   * *


1
-------------------------------------------------------------|
-------------------------------------------------------------|
-------------------------------------------------------------|
----------------3-5------------------------------------------|
-0--5-7-5-8-5-7-3-5-------3-5-0--5-7-5-8-5-7-1---4---3---1---|
-0--5-7-5-8-5-7-3-5-0-0-0-3-5-0--5-7-5-8-5-7-1-0-4-0-3-0-1-0-|
                    * * *                      *   *   *   *
2
-------------------------------------------------------------|
-------------------------------------------------------------|
----------------5-7------------------------------------------|
----------------3-5------------------------------------------|
-0--5-7-5-8-5-7-3-5-------3-5-0--5-7-5-8-5-7-1---4---3---1---|
-0--5-7-5-8-5-7-3-5-0-0-0-3-5-0--5-7-5-8-5-7-1-0-4-0-3-0-1-0-|
                    * * *                      *   *   *   *




1
----------------------------------------------------------|
----------------------------------------------------------|
----------------------------------------------------------|
----------------3-5--------------------------5-----8------|
-0--5-7-5-8-5-7-3-5-------3-5-0--5-7-5-8-5-7-3-----6------|
-0--5-7-5-8-5-7-3-5-0-0-0-3-5-0--5-7-5-8-5-7---0-0---0-0--|
                    * * *                      * *   * *
2
----------------------------------------------------------|
----------------------------------------------------------|
----------------5-7--------------------------5-----8------|
----------------3-5--------------------------5-----8------|
-0--5-7-5-8-5-7-3-5-------3-5-0--5-7-5-8-5-7-3-----6------|
-0--5-7-5-8-5-7-3-5-0-0-0-3-5-0--5-7-5-8-5-7---0-0---0-0--|
                    * * *                      * *   * *

1
----------------------------------------------|
----------------------------------------------|
----------------------------------------------|
----------------3-5---------------------------|
-0--5-7-5-8-5-7-3-5-------3-5-0--5-7-5-8-5-7--|
-0--5-7-5-8-5-7-3-5-0-0-0-3-5-0--5-7-5-8-5-7--|
                    * * *                    
2
----------------------------------------------|
----------------------------------------------|
----------------5-7---------------------------|
----------------3-5---------------------------|
-0--5-7-5-8-5-7-3-5-------3-5-0--5-7-5-8-5-7--|
-0--5-7-5-8-5-7-3-5-0-0-0-3-5-0--5-7-5-8-5-7--|
                    * * *                    

B
-----------------------------------------------------------|
-----------------------------------------------------------|
-----------------------------------------------------------|
-----------------------------------------------------------|
-1---4---3---1---4---1---3---4---1---4---3---1---0------\--|
-1-0-4-0-3-0-1-0-4-0-1-0-3-0-4-0-1-0-4-0-3-0-1-0-0------\--|
   *   *   *   *   *   *   *   *   *   *   *   *  |





0:35

B
----------------------------------------------------|
----------------------------------------------------|
----------------------------------------------------|
-------------3-----------5-----------8-8---7--------|
-5--5--5-3-0-1-----------3-----------6-6---5--\-----|
-5--5--5-3-0---0-0-0-0-0---0-0-0-0-0-----0----\-----|
  |  |         * * * * *   * * * * *     *

----------------------------------------------------|
----------------------------------------------------|
----------------------------------------------------|
-------------3-----------------3-3---------5--------|
-5--5--5-3-0-1-----------1-1---1-1---3-3---3--\-----|
-5--5--5-3-0---0-0-0-0-0-1-1-0-----0-3-3-0----\-----|
  |  |         * * * * *     *     *     *


----------------------------------------------------|
----------------------------------------------------|
----------------------------------------------------|
-------------3-----------5-----------8-8---7--------|
-5--5--5-3-0-1-----------3-----------6-6---5--\-----|
-5--5--5-3-0---0-0-0-0-0---0-0-0-0-0-----0----\-----|
  |  |         * * * * *   * * * * *     *

----------------------------------------------------|
----------------------------------------------------|
----------------------------------------------------|
-------------3-----------------3-3---------5--------|
-5--5--5-3-0-1-----------1-1---1-1---3-3---3--\-----|
-5--5--5-3-0---0-0-0-0-0-1-1-0-----0-3-3-0----\-----|
  |  |         * * * * *     *     *     *







0:55

B
--------------------------------------|
--------------------------------------|
--------------------------------------|
--------------------------------------|
0---7-5-7---8-7-8----10-8-10-----12---|
0---7-5-7---8-7-8----10-8-10---0-12\--|
                               *

---------------------------------------------|
---------------------------------------------|
---------------------------------------------|
---------------------------------------------|
-0--7-5-7--8-7-8---10-8-10-------------------|
-0--7-5-7--8-7-8---10-8-10--000-000-1-4-3-1--|
                            *** *** * * * *


----------------------------------------------------------------|
----------------------------------------------------------------|
----------------------------------------------------------------|
----------------------------------------------------------------|
-0------7-5-7------8-7-8--------------10-8-10----------12-------|
-0-0000-7-5-7-0000-8-7-8-000000000000-10-8-10-00000000-12\-0000-|
   ****       ****       ************         ********     ****


----------------------------------------------------------------|
----------------------------------------------------------------|
----------------------------------------------------------------|
----------------------------------------------------------------|
-0------7-5-7------8-7-8--------------10-8-10----------------0--|
-0-0000-7-5-7-0000-8-7-8-000000000000-10-8-10--000-000-1-4-3-0--|
   ****       ****       ************          *** *** * * *  |





1:15


1
----------------------------------------------------------|
----------------------------------------------------------|
----------------------------------------------------------|
----------------3-5--------------------------5-----8------|
-0--5-7-5-8-5-7-3-5-------3-5-0--5-7-5-8-5-7-3-----6------|
-0--5-7-5-8-5-7-3-5-0-0-0-3-5-0--5-7-5-8-5-7---0-0---0-0--|
                    * * *                      * *   * *
2
------------------------------------------------------------|
------------------------------------------------------------|
------------------5-7--------------------------5-----8------|
------------------3-5--------------------------5-----8------|
------------------3-5-------3-5-0--5-7-5-8-5-7-3-----6------|
------------------3-5-0-0-0-3-5-0--5-7-5-8-5-7---0-0---0-0--|
                      * * *                      * *   * *


1
-------------------------------------------------------------|
-------------------------------------------------------------|
-------------------------------------------------------------|
----------------3-5------------------------------------------|
-0--5-7-5-8-5-7-3-5-------3-5-0--5-7-5-8-5-7-1---4---3---1---|
-0--5-7-5-8-5-7-3-5-0-0-0-3-5-0--5-7-5-8-5-7-1-0-4-0-3-0-1-0-|
                    * * *                      *   *   *   *
2
-------------------------------------------------------------|
-------------------------------------------------------------|
----------------5-7------------------------------------------|
----------------3-5------------------------------------------|
-0--5-7-5-8-5-7-3-5-------3-5-0--5-7-5-8-5-7-1---4---3---1---|
-0--5-7-5-8-5-7-3-5-0-0-0-3-5-0--5-7-5-8-5-7-1-0-4-0-3-0-1-0-|
                    * * *                      *   *   *   *



1
----------------------------------------------------------|
----------------------------------------------------------|
----------------------------------------------------------|
----------------3-5--------------------------5-----8------|
-0--5-7-5-8-5-7-3-5-------3-5-0--5-7-5-8-5-7-3-----6------|
-0--5-7-5-8-5-7-3-5-0-0-0-3-5-0--5-7-5-8-5-7---0-0---0-0--|
                    * * *                      * *   * *
2
----------------------------------------------------------|
----------------------------------------------------------|
----------------5-7--------------------------5-----8------|
----------------3-5--------------------------5-----8------|
-0--5-7-5-8-5-7-3-5-------3-5-0--5-7-5-8-5-7-3-----6------|
-0--5-7-5-8-5-7-3-5-0-0-0-3-5-0--5-7-5-8-5-7---0-0---0-0--|
                      * * *                    * *   * *


----------------------------------------------|
----------------------------------------------|
----------------------------------------------|
----------------3-5---------------------------|
-0--5-7-5-8-5-7-3-5-------3-5-0--5-7-5-8-5-7--|
-0--5-7-5-8-5-7-3-5-0-0-0-3-5-0--5-7-5-8-5-7--|
                      * * *                    
2
----------------------------------------------|
----------------------------------------------|
----------------5-7---------------------------|
----------------3-5---------------------------|
-0--5-7-5-8-5-7-3-5-------3-5-0--5-7-5-8-5-7--|
-0--5-7-5-8-5-7-3-5-0-0-0-3-5-0--5-7-5-8-5-7--|
                      * * *                    

B
-----------------------------------------------------------|
-----------------------------------------------------------|
-----------------------------------------------------------|
-----------------------------------------------------------|
-1---4---3---1---4---1---3---4---1---4---3---1---0------\--|
-1-0-4-0-3-0-1-0-4-0-1-0-3-0-4-0-1-0-4-0-3-0-1-0-0------\--|
   *   *   *   *   *   *   *   *   *   *   *   *  |




1:38


B
---------------------------------------------------|
---------------------------------------------------|
---------------------------------------------------|
-------------3-----------5-----------8-8---7-------|
-5--5--5-3-0-1-----------3-----------6-6---5--\----|
-5--5--5-3-0---0-0-0-0-0---0-0-0-0-0-----0----\----|
  |  |         * * * * *   * * * * *     *

---------------------------------------------------|
---------------------------------------------------|
---------------------------------------------------|
-------------3-----------------3-3---------5-------|
-5--5--5-3-0-1-----------1-1---1-1---3-3---3--\----|
-5--5--5-3-0---0-0-0-0-0-1-1-0-----0-3-3-0----\----|
  |  |         * * * * *     *     *     *

---------------------------------------------------|
---------------------------------------------------|
---------------------------------------------------|
-------------3-----------5-----------8-8---7-7-----|
-5--5--5-3-0-1-----------3-----------6-6---5-5-\---|
-5--5--5-3-0---0-0-0-0-0---0-0-0-0-0-----0-----\---|
  |  |         * * * * *   * * * * *     *

-------------------------------------------------------------------|
-------------------------------------------------------------------|
-------------------------------------------------------------------|
-------------3-----------------3-3---------5-----------------------|
-5--5--5-3-0-1-----------1-1---1-1---3-3---3---------5-7-5-8-5-7-0-|
-5--5--5-3-0---0-0-0-0-0-1-1-0-----0-3-3-0-----------5-7-5-8-5-7-0-|
  |  |         * * * * *     *     *     *           * * * * * * * 






2:02

----------------------------------------------------------------------|
----------------------------------------------------------------------|
----------------------------------------------------------------------|
----------------------------------------------------------------------|
-0-0-0----0-0-0----0-0-0----0-0-0----0-0-0----0-0-0----5-7-5-8-5-7-0--|
-0-0-0----0-0-0----0-0-0----0-0-0----0-0-0----0-0-0----5-7-5-8-5-7-0--|
 * * *    * * *    * * *    * * *    * * *    * * *    * * * * * * * 


----------------------------------------------------------------------|
----------------------------------------------------------------------|
----------------------------------------------------------------------|
----------------------------------------------------------------------|
-0-0-0----0-0-0----0-0-0----0-0-0----0-0-0----0-0-0----5-7-5-8-5-7-0--|
-0-0-0----0-0-0----0-0-0----0-0-0----0-0-0----0-0-0----5-7-5-8-5-7-0--|
 * * *    * * *    * * *    * * *    * * *    * * *    * * * * * * * 




---------------------------------------------------------------------|
---------------------------------------------------------------------|
---------------------------------------------------------------------|
-----------------------------------------------------------3-5-------|
-0-0-0----0-0-0----0-0-0----0-0-0----0-0-0----0-0--3-5-0-0-1/3-0-0-0-|
-0-0-0----0-0-0----0-0-0----0-0-0----0-0-0----0-0--3/5-0-0-----0-0-0-|
 * * *    * * *    * * *    * * *    * * *    * *      * *     * * *

---------------------------------------------------------------------|
---------------------------------------------------------------------|
---------------------------------------------------------------------|
-0------------------------------------3--------------------3-5-------|
-0------------------------------------3------------3-5-0-0-1/3-0-0-0-|
-0------------------------------------3------------3/5-0-0-----0-0-0-|
                                                       * *     * * *



---------------------------------------------------------------------|
---------------------------------------------------------------------|
---------------------------------------------------------------------|
-----------------------------------------------------------3-5-------|
-0-0-0----0-0-0----0-0-0----0-0-0----0-0-0----0-0--3-5-0-0-1/3-0-0-0-|
-0-0-0----0-0-0----0-0-0----0-0-0----0-0-0----0-0--3/5-0-0-----0-0-0-|
 * * *    * * *    * * *    * * *    * * *    * *      * *     * * *

---------------------------------------------------------------------|
---------------------------------------------------------------------|
---------------------------------------------------------------------|
-0------------------------------------3--------------------3-5-------|
-0------------------------------------3------------3-5-0-0-1/3-0-0-0-|
-0------------------------------------3------------3/5-0-0-----0-0-0-|
                                                       * *     * * *


-----------------------------------------------------------------------|
-----------------------------------------------------_-----------------|
----------------------------------------------------/ \----------------|
---------------------------------------------------0-1-0-------^-------|
-0-0-0----0-0-0----0-0-0----0-0-0----0-0-0----0-0--------3-1--1-0------|
-0-0-0----0-0-0----0-0-0----0-0-0----0-0-0----0-0------------------3/5-|
 * * *    * * *    * * *    * * *    * * *    * *        * *

------------------------------------------------------------------------|
------------------------------------------------------_-----------------|
-----------------------------------------------------/ \----------------|
-0------------------------------------3-------------3-5-3-------^-------|
-0------------------------------------3-------------------5-3--5-3------|
-0------------------------------------3-----------------------------7/8-|
                                                          * *



---------------------------------------------------------------------|
---------------------------------------------------------------------|
---------------------------------------------------------------------|
-----------------------------------------------------------3-5-------|
-0-0-0----0-0-0----0-0-0----0-0-0----0-0-0----0-0--3-5-0-0-1/3-0-0-0-|
-0-0-0----0-0-0----0-0-0----0-0-0----0-0-0----0-0--3/5-0-0-----0-0-0-|
 * * *    * * *    * * *    * * *    * * *    * *      * *     * * *

---------------------------------------------------------------------|
---------------------------------------------------------------------|
---------------------------------------------------------------------|
-0------------------------------------3--------------------3-5-------|
-0------------------------------------3------------3-5-0-0-1/3-0-0-0-|
-0------------------------------------3------------3/5-0-0-----0-0-0-|
                                                       * *     * * *


---------------------------------------------------|
---------------------------------------------------|
---------------------------------------------------|
---------------------------------------------------|
-0-0-0----0-0-0----0-0-0----0-0-0----0-0-0----0-0--|
-0-0-0----0-0-0----0-0-0----0-0-0----0-0-0----0-0--|
 * * *    * * *    * * *    * * *    * * *    * *   

---------------------------------------------------|
---------------------------------------------------|
---------------------------------------------------|
-0------------------------------------3------------|
-0------------------------------------3------------|
-0------------------------------------3------------|
                                                          




2:30

-------------------------------------------------------------|
-------------------------------------------------------------|
-------------------------------------------------------------|
-------------------------------------------------------------|
-1---4---3---1---4---1---3---4---1---4---3---1---4---1-------|
-1-0-4-0-3-0-1-0-4-0-1-0-3-0-4-0-1-0-4-0-3-0-1-0-4-0-1-/12~~-|
   *   *   *   *   *   *   *   *   *   *   *   *   *   

-----------------------------------------|
-----------------------------------------|
-----------------------------------------|
-----------------------------------------|
-1--4--3--1--4--1--3--4--1--4--3--1--0-0-|
-1--4--3--1--4--1--3--4--1--4--3--1--0-0-|
 *  *  *  *  *  *  *  *  *  *  *  *  * * 





2:40

B
----------------------------------------------------|
----------------------------------------------------|
----------------------------------------------------|
-------------3-----------5-----------8-8---7--------|
-5--5--5-3-0-1-----------3-----------6-6---5-\------|
-5--5--5-3-0---0-0-0-0-0---0-0-0-0-0-----0---\------|
  |  |         * * * * *   * * * * *     *

----------------------------------------------------|
----------------------------------------------------|
----------------------------------------------------|
-------------3-----------------3-3---------5--------|
-5--5--5-3-0-1-----------1-1---1-1---3-3---3--\-----|
-5--5--5-3-0---0-0-0-0-0-1-1-0-----0-3-3-0----\-----|
  |  |         * * * * *     *     *     *


----------------------------------------------------|
----------------------------------------------------|
----------------------------------------------------|
-------------3-----------5-----------8-8---7--------|
-5--5--5-3-0-1-----------3-----------6-6---5--\-----|
-5--5--5-3-0---0-0-0-0-0---0-0-0-0-0-----0----\-----|
  |  |         * * * * *   * * * * *     *

----------------------------------------------------|
----------------------------------------------------|
----------------------------------------------------|
-------------3-----------------3-3---------5--------|
-5--5--5-3-0-1-----------1-1---1-1---3-3---3--0-0---|
-5--5--5-3-0---0-0-0-0-0-1-1-0-----0-3-3-0----0-0---|
  |  |         * * * * *     *     *     *    * *




0:55 FILL  2:40 FILL
---------|----------|
---------|----------|
---7-----|---12-----|
---X-----|----X-----|
---5-----|---10-----|
---------|----------|
Добавлено: 07.07.2013
Другие материалы по этой песне:
  • Аккорды и текст

Страница создана 07.07.2013
http://primanota.ru/killswitch-engage/slave-to-the-machine-chords.htm
Привет, Гость.
Предлагаем пройти революционный курс по гитаре.
Подарок от PrimaNota.Ru, забирай!