PrimaNota.ru - самый крупный в мире бесплатный архив песенных текстов, аккордов, табулатур и нот


Killswitch Engage - Daylight Dies - текст песни, таба, видео

Регистрация Запомнить меня
Войти через:  Facebook Google Twitter Vk Yandex Mail.ru

Killswitch Engage - Daylight Dies - текст песни, таба, видео

Печатать
Просмотров: 110
Killswitch Engage

Daylight Dies    (C G C F A D)


Intro:

Guitar 1:
                                                                          
D |--------------------------------|                                      S
A |--------------------------------|
F |--------------------------------|
C |-0------------------------------|                                      T
G |--------------------------------|
C |-0------------------------------|
                                                                          R
                                                                          
Guitar 2:
                                                                          U
D |--------------------------------|               
A |--------------------------------|                                       
F |-2-----------3--------6---------|                                      M
C |--------------------------------|
G |-0-----------1--------4---------|
C |--------------------------------|                                      M


Guitar 3:

D |------------------------------------------------|
A |------------------------------------------------|
F |-14---------------------------------------------| 
C |------------------------------------------------|
G |-12---------------------------------------------|
C |------------------------------------------------|

Guitar 1:                                                                 I

D |------------------------------------------------|
A |------------------------------------------------|                      N 
F |------------------------------------------------| 
C |-0---2---0---3-5-7---5-7-8---7---5---3-2-0--7b~-| 
G |------------------------------------------------|                      G 
C |-0---2---0---3-5-7---5-7-8---7---5---3-2-0--7b~-|


Guitar 2:

D |---------------------------------------------------|
A |---------------------------------------------------|
F |-2-------2---5--7---5-7-10--12-10--9--7--2-5-7-6b~-|
C |-----5---------------------------------------------|
G |-0-------0---3--5---3-5-8---10-8---7--5--0-3-5-4b~-|
C |-----5---------------------------------------------|


Guitar 4:

D |------------------------------------------------------------------|
A |------------------------------------------------------------------|
F |------------------------------------------------------------------|
C |-----7-------8---7---7-------7-------10---8---7-------7-------8---|
G |-0-8---8-0-8---8---8---8-0-8---8-0-8----8---8---8-0-8---8-0-8---8-|
C |------------------------------------------------------------------|
    . .   . . .   .   .   . . .   . . .    .   .   . . .   . . .   .   

D |------------------------------------------------------------------|
A |------------------------------------------------------------------|
F |------------------------------------------------------------------|
C |-7---7-------7-------10---8---7-------7-------8---7---7-------7---|
G |---8---8-0-8---8-0-8----8---8---8-0-8---8-0-8---8---8---8-0-8---8-|
C |------------------------------------------------------------------|
      .   . . .   . . .    .   .   . . .   . . .   .   .   . . .   .

D |-------------------------------------------------------------------|
A |-------------------------------------------------------------------|
F |-------------------------------------------------------------------| 
C |-----10---8---7-------7-------8---7---7-------7-------10---8---7---|
G |-0-8----8---8---8-0-8---8-0-8---8---8---8-0-8---8-0-8----8---8---8-|
C |-------------------------------------------------------------------|
    . .    .   .   . . .   . . .   .   .   . . .   . . .    .   .   .

D |------------------------------------------------------------------|
A |------------------------------------------------------------------|
F |------------------------------------------------------------------| 
C |-----7-------8---7---7-------7-------10---8---7---7b~-------------|
G |-0-8---8-0-8---8---8---8-0-8---8-0-8----8---8---8-----------------|
C |------------------------------------------------------------------|
    . .   . . .   .   .   . . .   . . .    .   .   .


Riff 1:  4x

Guitar 1:

D |------------------------------------------------------------------------|
A |------------------------------------------------------------------------|
F |--------------------------------------------------/10p9-7h9-/10p9-------|
C |------------------------------------------------------------------10h12-|
G |-000-000-000-000-000-000-000-000-000-000-000-000------------------------|
C |-000-000-000-000-000-000-000-000-000-000-000-000------------------------|
    ... ... ... ... ... ... ... ... ... ... ... ...

Guitar 2:

D|----------------------------------------------------------------------------|
A|----------------------------------------------------------------------------|
F|--------------------------------------------------/14p12-10h12-/14p12-------|
C|----------------------------------------------------------------------14h15-|
G|-000-000-000-000-000-000-000-000-000-000-000-000----------------------------|
C|-000-000-000-000-000-000-000-000-000-000-000-000----------------------------|
   ... ... ... ... ... ... ... ... ... ... ... ...


Riff 2: 

Guirar 1:

D |-----------------------------------------------------------|
A |-----------------------------------------------------------|
F |-----2-----0-----2h3p2-------------------------------------|
C |-----------------------5-3-2-------------------------------|
G |-----------------------------5-3----0--0-0-0----0--0-0-0-0-|
C |-0-0---0-0---0-0-----------------3b-0--0-0-0-3b-0--0-0-0-0-|
    . .   . .   . .       . .   . .    .  . . .    .  . . .

Guitar 2:

D |-----------------------------------------------------------|
A |-----------------------------------------------------------|
F |-----5-----2-----5h7p5-------------------------------------|
C |-----------------------8-7-5-------------------------------|
G |-----------------------------8-7----0--0-0-0----0--0-0-0-0-|
C |-0-0---0-0---0-0-----------------3b-0--0-0-0-3b-0--0-0-0-0-|
    . .   . .   . .       . .   . .    .  . . .    .  . . .

Guirar 1:

D |-----------------------------------------------------------|
A |-----------------------------------------------------------|
F |-----2-----0-----2h3p2-------------------------------------|
C |-----------------------5-3-2-------------------------------|
G |-----------------------------5-3----0--0-0-0----0--\\\\\\\-|
C |-0-0---0-0---0-0-----------------3b-0--0-0-0-3b-0--\\\\\\\-|
    . .   . .   . .       . .   . .    .  . . .    .(pickslide)  

Guitar 2:

D |-----------------------------------------------------------|
A |-----------------------------------------------------------|
F |-----5-----2-----5h7p5-------------------------------------|
C |-----------------------8-7-5-------------------------------|
G |-----------------------------8-7----0--0-0-0----0--\\\\\\\-|
C |-0-0---0-0---0-0-----------------3b-0--0-0-0-3b-0--\\\\\\\-|
    . .   . .   . .       . .   . .    .  . . .    .(pickslide)

Guirar 1:

D |-----------------------------------------------------------|
A |-----------------------------------------------------------|
F |-----2-----0-----2h3p2-------------------------------------|
C |-----------------------5-3-2-------------------------------|
G |-----------------------------5-3----0--0-0-0----0--0-0-0-0-|
C |-0-0---0-0---0-0-----------------3b-0--0-0-0-3b-0--0-0-0-0-|
    . .   . .   . .       . .   . .    .  . . .    .  . . .

Guitar 2:

D |---------------------------------------------------------|
A |---------------------------------------------------------|
F |---------------------------------------------------------|
C |-3---------------3/5-5-5-5-5-5---------------------------|
G |-3---------------3/5-5-5-5-5-5-3b-0--0-0-0-3b-0--0-0-0-0-|
C |-3---------------3/5-5-5-5-5-5----0--0-0-0----0--0-0-0-0-|
                                     .  . . .    .  . . .

Guirar 1:

D |------------------------------------------------------|
A |------------------------------------------------------|
F |-----2-----0-----2h3p2--------------------------------|
C |-----------------------5-3-2--------------------------|
G |-----------------------------5-3----0--0-0-0----0-----|
C |-0-0---0-0---0-0-----------------3b-0--0-0-0-3b-0-12\-|
    . .   . .   . .       . .   . .    .  . . .    .  

Guitar 2:

D |----------------------------------------------------|
A |----------------------------------------------------|
F |----------------------------------------------------|
C |-3---------------3/5-5-5-5-5-5----------------------|
G |-3---------------3/5-5-5-5-5-5-3b-0--0-0-0-3b-0-----|
C |-3---------------3/5-5-5-5-5-5----0--0-0-0----0-12\-|
                                     .  . . .    .  


Chorus:

Guitar 1:

D |--------------------------------------------------|
A |--------------------------------------------------|
F |--------------------------------------------------|
C |-0-----------3-----------8-----------10---8---7---| 
G |-0-----------3-----------8--------------8---8---8-|
C |-0-----------3-----------8------------------------|
                                           .   .   .

D |--------------------------------------------------------|
A |--------------------------------------------------------|
F |--------------------------------------------------------|
C |-0-----------10----------------8-----------10---8---7---| 
G |-0-----------10----------------8--------------8---8---8-|
C |-0-----------10----------------8------------------------|
                                                 .   .   .

Guitar 2:

D |------------------------------------------------|
A |------------------------------------------------|
F |------------------------------------------------|
C |-----7-------8---7---7-----7-------10---8---7---| 
G |-0-8---8-0-8---8---8---0-8---8-0-8----8---8---8-|
C |------------------------------------------------|
    . .   . . .   .   .   . .   . . .    .   .   .

Guitar 1:

D |--------------------------------------------------|
A |--------------------------------------------------|
F |--------------------------------------------------|
C |-------------------------------------10---8---7---| 
G |-0-0-0-0-0-0-3-3-3-3-3-3-8-8-8-8-8-8----8---8---8-|
C |-0-0-0-0-0-0-3-3-3-3-3-3-8-8-8-8-8-8--------------|
    . . . . . . . . . . . . . . . . . .    .   .   .

D |--------------------------------------------------------|
A |--------------------------------------------------------|
F |--------------------------------------------------------|
C |-------------------------------------------10---8---7---| 
G |-0-0-0-0-0-0-10-10-10-10-10-10-8-8-8-8-8-8----8---8---8-|
C |-0-0-0-0-0-0-10-10-10-10-10-10-8-8-8-8-8-8--------------|
    . . . . . . .  .  .  .  .  .  . . . . . .    .   .   .

Guitar 2:

D |------------------------------------------------|
A |------------------------------------------------|
F |------------------------------------------------|
C |-----7-------8---7---7-----7-------10---8---7---| 
G |-0-8---8-0-8---8---8---0-8---8-0-8----8---8---8-|
C |------------------------------------------------|
    . .   . . .   .   .   . .   . . .    .   .   .

Riff 1: 4x

Guitar 1:

D |------------------------------------------------------------------------|
A |------------------------------------------------------------------------|
F |--------------------------------------------------/10p9-7h9-/10p9-------|
C |------------------------------------------------------------------10h12-|
G |-000-000-000-000-000-000-000-000-000-000-000-000------------------------|
C |-000-000-000-000-000-000-000-000-000-000-000-000------------------------|
    ... ... ... ... ... ... ... ... ... ... ... ...

Guitar 2:

D|----------------------------------------------------------------------------|
A|----------------------------------------------------------------------------|
F|--------------------------------------------------/14p12-10h12-/14p12-------|
C|----------------------------------------------------------------------14h15-|
G|-000-000-000-000-000-000-000-000-000-000-000-000----------------------------|
C|-000-000-000-000-000-000-000-000-000-000-000-000----------------------------|
   ... ... ... ... ... ... ... ... ... ... ... ...

Riff 3:

Guitar 2:

D |---------------------------------|
A |---------------------------------|
F |---------------------------------|     2x
C |-----7---------------7-----------|
G |-0-8---8-0-8-0-8-0-8---8-0-8-0-8-|
C |---------------------------------|
    . .   . . . . . . .   . . . . .

Guitar 1:

D |-------------------------------------------|
A |-------------------------------------------|
F |-------------------------------------------|
C |------10-------------------10--------------|       1x
G |-0-12----12-0-12-0-12-0-12----12-0-12-0-12-|
C |-------------------------------------------|
    . .     .    .    .    .     .    .    .


Chorus:

Guitar 1:

D |--------------------------------------------------|
A |--------------------------------------------------|
F |--------------------------------------------------|
C |-0-----------3-----------8-----------10---8---7---| 
G |-0-----------3-----------8--------------8---8---8-|
C |-0-----------3-----------8------------------------|
                                           .   .   .

D |--------------------------------------------------------|
A |--------------------------------------------------------|
F |--------------------------------------------------------|
C |-0-----------10----------------8-----------10---8---7---| 
G |-0-----------10----------------8--------------8---8---8-|
C |-0-----------10----------------8------------------------|
                                                 .   .   .

Guitar 2:

D |------------------------------------------------|
A |------------------------------------------------|
F |------------------------------------------------|
C |-----7-------8---7---7-----7-------10---8---7---|  
G |-0-8---8-0-8---8---8---0-8---8-0-8----8---8---8-|
C |------------------------------------------------|
    . .   . . .   .   .   . .   . . .    .   .   .

Guitar 1:

D |--------------------------------------------------|
A |--------------------------------------------------|
F |--------------------------------------------------|
C |-------------------------------------10---8---7---| 
G |-0-0-0-0-0-0-3-3-3-3-3-3-8-8-8-8-8-8----8---8---8-|
C |-0-0-0-0-0-0-3-3-3-3-3-3-8-8-8-8-8-8--------------|
    . . . . . . . . . . . . . . . . . .    .   .   .

D |--------------------------------------------------------|
A |--------------------------------------------------------|
F |--------------------------------------------------------|
C |-------------------------------------------10---8---7---| 
G |-0-0-0-0-0-0-10-10-10-10-10-10-8-8-8-8-8-8----8---8---8-|
C |-0-0-0-0-0-0-10-10-10-10-10-10-8-8-8-8-8-8--------------|
    . . . . . . .  .  .  .  .  .  . . . . . .    .   .   .

Guitar 2:

D |------------------------------------------------|
A |------------------------------------------------|
F |------------------------------------------------| 
C |-----7-------8---7---7-----7-------10---8---7---|
G |-0-8---8-0-8---8---8---0-8---8-0-8----8---8---8-|
C |------------------------------------------------|
    . .   . . .   .   .   . .   . . .    .   .   .


Riff 4:

Guitar 1:

D |-----------------------------------------------------------------|
A |-----------------------------------------------------------------|
F |-7-7-7-7-7-7-7-7-2-2-2-2-2-2-2-2-3-3-3-3-3-3-3-3-5-5-5-5-5-5-5-5-|
C |-----------------------------------------------------------------|  4x
G |-5-5-5-5-5-5-5-5-0-0-0-0-0-0-0-0-1-1-1-1-1-1-1-1-3-3-3-3-3-3-3-3-|
C |-----------------------------------------------------------------|

Guitar 2:

D |-----|---------------------------------------------|
A |-----|---------------------------------------------|
F |-----|-7-7-7-7-10-10-10-10-12-12-12-12-14-14-14-14-|  3x
C |-----|---------------------------------------------|
G |-----|-5-5-5-5-8--8--8--8--10-10-10-10-12-12-12-12-|
C |-12\-|---------------------------------------------|


Riff 5:

Guitar 1 & 2:

D |-----|-------------------------------------------------------|
A |-----|-------------------------------------------------------|
F |-----|-------------------------------------------------------|
C |-----|-------------------------------------------------------|
G |-----|-0-0-0-0-0-0-0-0-0-0-0-0-0-0-0-0---0-0-0-0---0-0-0-0---|
C |-12\-|-0-0-0-0-0-0-0-0-0-0-0-0-0-0-0-0---0-0-0-0---0-0-0-0---|
          . . . . . . . . . . . . . . . .   . . . .   . . . .    

Guitar 1 & 2:

D |---------------------------------------------------------|
A |---------------------------------------------------------|
F |---------------------------------------------------------|
C |-------------------------------------------3\---------3\-|
G |-0-0-0-0-0-0-0-0-0-0-0-0-0-0-0-0---0-0-0-0-5\-0-0-0-0-5\-|
C |-0-0-0-0-0-0-0-0-0-0-0-0-0-0-0-0---0-0-0-0----0-0-0-0----|
    . . . . . . . . . . . . . . . .   . . .      . . .  

Guitar 2:

D |-------------------------------------------------------|
A |-------------------------------------------------------|
F |-------------------------------------------------------|
C |-------------------------------------------------------|
G |-0-0-0-0-0-0-0-0-0-0-0-0-0-0-0-0---0-0-0-0---0-0-0-0---|
C |-0-0-0-0-0-0-0-0-0-0-0-0-0-0-0-0---0-0-0-0---0-0-0-0---|
    . . . . . . . . . . . . . . . .   . . . .   . . . .    

Guitar 1:

D |-----------------------------------------------------------------|
A |-----------------------------------------------------------------|
F |-7-7-7-7-7-7-7-7-2-2-2-2-2-2-2-2-3-3-3-3-3-3-3-3-5-5-5-5-5-5-5-5-|
C |-----------------------------------------------------------------|
G |-5-5-5-5-5-5-5-5-0-0-0-0-0-0-0-0-1-1-1-1-1-1-1-1-3-3-3-3-3-3-3-3-|
C |-----------------------------------------------------------------|

Guitar 2:

D |---------------------------------------------------------|
A |---------------------------------------------------------|
F |---------------------------------------------------------|
C |-------------------------------------------3\---------3\-|
G |-0-0-0-0-0-0-0-0-0-0-0-0-0-0-0-0---0-0-0-0-5\-0-0-0-0-5\-|
C |-0-0-0-0-0-0-0-0-0-0-0-0-0-0-0-0---0-0-0-0----0-0-0-0----|
    . . . . . . . . . . . . . . . .   . . .      . . .  
 
Guitar 1:

D |-----------------------------------------------------------------|
A |-----------------------------------------------------------------|
F |-7-7-7-7-7-7-7-7-2-2-2-2-2-2-2-2-3-3-3-3-3-3-3-3-5-5-5-5-5-5-5-5-|
C |-----------------------------------------------------------------|
G |-5-5-5-5-5-5-5-5-0-0-0-0-0-0-0-0-1-1-1-1-1-1-1-1-3-3-3-3-3-3-3-3-|
C |-----------------------------------------------------------------|


Chorus:

Guitar 1:

D |--------------------------------------------------|
A |--------------------------------------------------|
F |--------------------------------------------------|
C |-0-----------3-----------8-----------10---8---7---| 
G |-0-----------3-----------8--------------8---8---8-|
C |-0-----------3-----------8------------------------|
                                           .   .   .

D |--------------------------------------------------------|
A |--------------------------------------------------------|
F |--------------------------------------------------------|
C |-0-----------10----------------8-----------10---8---7---| 
G |-0-----------10----------------8--------------8---8---8-|
C |-0-----------10----------------8------------------------|
                                                 .   .   .

Guitar 2:

D |------------------------------------------------|
A |------------------------------------------------|
F |------------------------------------------------|
C |-----7-------8---7---7-----7-------10---8---7---| 
G |-0-8---8-0-8---8---8---0-8---8-0-8----8---8---8-|
C |------------------------------------------------|
    . .   . . .   .   .   . .   . . .    .   .   .

Guitar 1:

D |--------------------------------------------------|
A |--------------------------------------------------|
F |--------------------------------------------------|
C |-------------------------------------10---8---7---| 
G |-0-0-0-0-0-0-3-3-3-3-3-3-8-8-8-8-8-8----8---8---8-|
C |-0-0-0-0-0-0-3-3-3-3-3-3-8-8-8-8-8-8--------------|
    . . . . . . . . . . . . . . . . . .    .   .   .

D |--------------------------------------------------------|
A |--------------------------------------------------------|
F |--------------------------------------------------------|
C |-------------------------------------------10---8---7---| 
G |-0-0-0-0-0-0-10-10-10-10-10-10-8-8-8-8-8-8----8---8---8-|
C |-0-0-0-0-0-0-10-10-10-10-10-10-8-8-8-8-8-8--------------|
    . . . . . . .  .  .  .  .  .  . . . . . .    .   .   .

Guitar 2:

D |------------------------------------------------|
A |------------------------------------------------|
F |------------------------------------------------| 
C |-----7-------8---7---7-----7-------10---8---7---|
G |-0-8---8-0-8---8---8---0-8---8-0-8----8---8---8-|
C |------------------------------------------------|
    . .   . . .   .   .   . .   . . .    .   .   .

Guitar 1: 2x

D |-------------------------------------------------------------|
A |-------------------------------------------------------------|
F |-2-2-2-2-2-2-5-5-5-5-5-5-10-10-10-10-10-10-10-10-10-10-10-10-|
C |-------------------------------------------------------------|
G |-0-0-0-0-0-0-3-3-3-3-3-3-8--8--8--8--8--8--8--8--8--8--8--8--|
C |-------------------------------------------------------------|

D |-------------------------------------------------------------------------|
A |-------------------------------------------------------------------------|
F |-14-14-14-14-14-14-12-12-12-12-12-12-10-10-10-10-10-10-10-10-10-10-10-10-|
C |-------------------------------------------------------------------------|
G |-12-12-12-12-12-12-10-10-10-10-10-10-8--8--8--8--8--8--8--8--8--8--8--8--|
C |-------------------------------------------------------------------------|


Guitar 2: 2x

D |------------------------------------------------|
A |------------------------------------------------|
F |------------------------------------------------| 
C |-----7-------8---7---7-----7-------10---8---7---|
G |-0-8---8-0-8---8---8---0-8---8-0-8----8---8---8-|
C |------------------------------------------------|
    . .   . . .   .   .   . .   . . .    .   .   .

Guitar 1:

D |------------------------------------------------|
A |------------------------------------------------|
F |-10---------------------------------------------| 
C |------------------------------------------------|
G |-8----------------------------------------------|
C |------------------------------------------------|
  

Guitar 2:

D |------------------------------------------------|
A |------------------------------------------------|
F |------------------------------------------------| 
C |-0----------------------------------------------|
G |-0----------------------------------------------|
C |-0----------------------------------------------|
  
Добавлено: 04.11.2013
Другие материалы по этой песне:
  • Аккорды и текст

Страница создана 04.11.2013
http://primanota.ru/killswitch-engage/daylight-dies-chords.htm
Привет, Гость.
Предлагаем пройти революционный курс по гитаре.
Подарок от PrimaNota.Ru, забирай!