PrimaNota.ru - самый крупный в мире бесплатный архив песенных текстов, аккордов, табулатур и нот


Killswitch Engage - Be One - текст песни, таба, видео

Регистрация Запомнить меня
Войти через:  Facebook Google Twitter Vk Yandex Mail.ru

Killswitch Engage - Be One - текст песни, таба, видео

Печатать
Просмотров: 138
Уроки эстрадного вокала в Санкт-Петербурге
Be One - Killswitch Engage
(Bonus Track)
-------------------------------------------------------------------------------

Tuning:Drop C

Intro 

Guitar 1 

D|-------------------------------------------|
A|-------------------------------------------|
F|-------------------------------------------|
C|-------------------------------------------|
G|-12p10-8p0-10p0-8p0-7-12p10-8p0-10p0-8p0-7-|
C|-------------------------------------------|

D|-----------------------------------------------|
A|-----------------------------------------------|
F|-----------------------------------------------|
C|-----------------------------------------------|
G|-12-10-8p0-10p0-8p0-7p0-8p0-7p0-5p0-7p0-5p0-3--|
C|-----------------------------------------------|


D|-----------------------------------------------------------------------|
A|-----------------------------------------------------------------------|
F|-----------------------------------------------------------------------|3x
C|-----------------------------------------------------------------------|
G|-3-1-0--0-3-1-0-0-3-1-0--12-10-8p0-10p0-8p0-7p0-8p0-7p0-5p0-7p0-5p0-3--|
C|-3-1-0--0-3-1-0-0-3-1-0------------------------------------------------|
   x x x  x x x x x x x x

D|-----------------------------|
A|-----------------------------|
F|-----------------------------|
C|-----------------------0-----|
G|-3-1-0--0-3-1-0--0-0-0-0-----|
C|-3-1-0--0-3-1-0--0-0-0-0-----|
   x x x  x x x x  x x x

D|-----------|
A|-----------|
F|-----------|  
C|-----------|   Play multiple times                                  
G|-3-1-0-0---|                                     
C|-3-1-0-0---|
   x x x x

D|-----|
A|-----|
F|-7---|
C|-7---|4x
G|-5---|
C|-----|
  

Guitar 2

D|------------------------------------------------|
A|------------------------------------------------|
F|------------------------------------------------|
C|--10-8-7p0-8p0-7p0-5p0-7p0-5p0-3p0-5p0-3p0-2----|
G|------------------------------------------------|
C|------------------------------------------------|


D|-----------------------------|
A|-----------------------------|
F|-------------------------3-5-|2x
C|-------------------------3-5-|
G|-3-1-0--0-3-1-0-0-3-1-0--1-3-|
C|-3-1-0--0-3-1-0-0-3-1-0------|
   x x x  x x x x x x x x

D|-----------------------------------------------------------------------|
A|-----------------------------------------------------------------------|
F|-----------------------------------------------------------------------|
C|-------------------------10-8-7p0-8p0-7p0-5p0-7p0-5p0-3p0-5p0-3p0-2----|
G|-3-1-0--0-3-1-0-0-3-1-0------------------------------------------------|
C|-3-1-0--0-3-1-0-0-3-1-0------------------------------------------------|
   x x x  x x x x x x x x

D|------------------------------------------|
A|------------------------------------------|
F|------------------------------------------|
C|----------------/-------------------------|
G|-3-1-0--0-3-1-0-/-0-3-1-0-0-3-1-0-0-3-1-0-|
C|-3-1-0--0-3-1-0-/-0-3-1-0-0-3-1-0-0-3-1-0-|
   x x x  x x x x   x x x x x x x x x x x x

D|-----------|
A|-----------|
F|-----------|  Play multiple times
C|-----------|                                     
G|-3-1-0-0---|                                     
C|-3-1-0-0---|
   x x x x

D|-----|
A|-----|
F|-7---|
C|-7---|4x
G|-5---|
C|-----|

Verse

Both Guitars (Play twice)
 
D|-------------------------------|
A|-------------------------------|
F|----------------------8-5-7----|
C|----------------------8-5-7----|
G|-0-0-0--0-0-0--0-0-0--6-3-5----|
C|-0-0-0--0-0-0--0-0-0-----------|
   x x x  x x x  x x x

D|-------------------------------|
A|-------------------------------|
F|----------------------3-5------|
C|----------------------3-5-0----|
G|-0-0-0--0-0-0--0-0-0--1-3-0----|
C|-0-0-0--0-0-0--0-0-0------0----|
   x x x  x x x  x x x

D|-------------------------------|
A|-------------------------------|
F|----------------------8-5-3----|
C|----------------------8-5-3----|
G|-0-0-0--0-0-0--0-0-0--6-3-1----|
C|-0-0-0--0-0-0--0-0-0-----------|
   x x x  x x x  x x x

D|-------------------------|
A|-------------------------|
F|--7h8p7------------------|
C|--------10-8-7-----------|
G|---------------10-8-7----|
C|-------------------------|

Pre Chorus

Both Guitars (Play twice)


D|---------------------------------------------------|
A|---------------------------------------------------|
F|---------------------------------------------------|
C|---------------------------------------------------|
G|-0---------------------10h12p10/8h10p8/7h8p7/5h7p5-|
C|-0-0-0-0-0-0-0-0-0-0-0-----------------------------|
     x x x x x x x x x x


D|---------------------------------------------------|
A|---------------------------------------------------|
F|---------------------------------------------------|
C|-8----------------------8h10p8/7h8p7/5h7p5/3h5p3----|
G|-8-------------------------------------------------|
C|-8-8-8-8-8-8-8-8-8-8-8-----------------------------|
     x x x x x x x x x x

Chorus  

Guitar 1

D|-----------------------------------------------------------|
A|-----------------------------------------------------------|
F|------9h10p9---------------14h15p14--12-10-----------------|
C|--12v--------12-10---------------------------10--12--------|
G|--------------------12/13----------------------------------|
C|-----------------------------------------------------------| x2

Verse

Both Guitars 

D|-----------|
A|-----------|
F|-----------|  
C|-----------|  Play multiple times                                   
G|-3-1-0-0---|                                     
C|-3-1-0-0---|
   x x x x

D|-----|
A|-----|
F|-7---|
C|-7---|4x
G|-5---|
C|-----| 

Guitar 1 2x

D|-------------------------------|
A|-------------------------------|
F|----------------------8-5-7----|
C|----------------------8-5-7----|
G|-0-0-0--0-0-0--0-0-0--6-3-5----|
C|-0-0-0--0-0-0--0-0-0-----------|
   x x x  x x x  x x x

D|-------------------------------|
A|-------------------------------|
F|----------------------3-5-------|
C|----------------------3-5-0----|
G|-0-0-0--0-0-0--0-0-0--1-3-0----|
C|-0-0-0--0-0-0--0-0-0------0----|
   x x x  x x x  x x x

D|-------------------------------|
A|-------------------------------|
F|----------------------8-5-3----|
C|----------------------8-5-3----|
G|-0-0-0--0-0-0--0-0-0--6-3-1----|
C|-0-0-0--0-0-0--0-0-0-----------|
   x x x  x x x  x x x

D|-------------------------|
A|-------------------------|
F|--7h8p7------------------|
C|--------10-8-7-----------|
G|---------------10-8-7----|
C|-------------------------|

Guitar 2 1x

D|-------------------------------|
A|-------------------------------|
F|----------------------8-5-7----|
C|----------------------8-5-7----|
G|-0-0-0--0-0-0--0-0-0--6-3-5----|
C|-0-0-0--0-0-0--0-0-0-----------|
   x x x  x x x  x x x

D|-------------------------------|
A|-------------------------------|
F|----------------------3-5------|
C|----------------------3-5-0----|
G|-0-0-0--0-0-0--0-0-0--1-3-0----|
C|-0-0-0--0-0-0--0-0-0------0----|
   x x x  x x x  x x x

D|-------------------------------|
A|-------------------------------|
F|----------------------8-5-3----|
C|----------------------8-5-3----|
G|-0-0-0--0-0-0--0-0-0--6-3-1----|
C|-0-0-0--0-0-0--0-0-0-----------|
   x x x  x x x  x x x

D|-------------------------|
A|-------------------------|
F|--7h8p7------------------|
C|--------10-8-7-----------|
G|---------------10-8-7----|
C|-------------------------|


D|--------------------------|
A|--------------------------|
F|-7\8/5\7/3\5\7\8/5/3\5----|
C|-x\x/x\x/x\x\x\x/x/x\x----|
G|-5\6/3\5/1\3\5\6/3/1\3----|
C|--------------------------|

Repeat Pre Chorus and Chorus 


Breakdown:


D|---------------------------------------------|
A|---------------------------------------------|
F|---------7-5-7----8-8-8-8--7-7---------------|
C|--0-0-0--7-5-7-0--8-8-8-8--7-7---------------|
G|--0-0-0--5-3-5-0--6-6-6-6--5-5---------------|
C|--0-0-0--------0-----------------------------|
    x x x        x 


Outro:

Guitar 1

D|-----------------------------------------------------------|
A|-----------------------------------------------------------|
F|------9h10p9---------------14h15p14--12-10-----------------|
C|--12v--------12-10---------------------------10--12--------|
G|--------------------12/13----------------------------------|
C|-----------------------------------------------------------| x2


   
Добавлено: 30.10.2013
Другие материалы по этой песне:
  • Аккорды и текст

Страница создана 03.03.2012
http://primanota.ru/killswitch-engage/be-one-chords.htm
Привет, Гость.
Предлагаем пройти революционный курс по гитаре.
Подарок от PrimaNota.Ru, забирай!