PrimaNota.ru - самый крупный в мире бесплатный архив песенных текстов, аккордов, табулатур и нот


Hurt - Alone With The Sea - текст песни, таба, видео

Регистрация Запомнить меня
Войти через:  Facebook Google Twitter Vk Yandex Mail.ru

Hurt - Alone With The Sea - текст песни, таба, видео

Печатать
Просмотров: 192
----------------------------------------------------------------------------------
                          Alone with the Sea - Hurt          
----------------------------------------------------------------------------------
Tabbed by:jhawk

*This was tabbed using Courier New 10 pt font.

*This is a work in progress, but I thought somebody might appreciate what I've
been able to get down in what little spare time I have.  I will update this as
I have time.  Enjoy!

Tuning: Standard		

_______Guitars_______
Gtr.   I = Acoustic
Gtr.  II = Acoustic
Gtr. III = Banjo (arranged for clean electric)
Gtr.  IV = Violin (arranged for clean electric)

| /  Slide up			
| \  Slide down			
| h  Hammer-on			
| b  Bend			
| r  Release
| p  Pull-off
| ~  Vibrato
| +  Harmonic
| x  Mute note
| *  Stacato

                                                                         Gtr. I  
   Verse 1  Once there was...          x2                                      x2
e|-------------------|-------------------|-------------------|-------------------|
B|-------------------|-------------------|-------------------|-------------------|
G|-----2---2---4p2---|-----2---2---2-----|-------------------|-------------------|
D|---4---4---4-----4-|---4---4---4---4---|---7---7---7-9p7---|---7---7---7---7---|
A|-0-----------------|-0-----------------|-9---9---9-------9-|-9---9---9---9-----|
E|-------------------|-------------------|-------------------|-------------------|
 |                                                                               |
 |                                                                               |
 |                                                                     Gtr. II x2|
e|---------------------------------------|-------------------|-------------------|
B|---------------------------------------|-------------------|-------------------|
G|---------------------------------------|-------------------|-------------------|
D|---------------------------------------|-------------------|-------------------|
A|---------------------------------------|-------------------|-------------------|
E|---------------------------------------|5--5--5-5--5-4-4h5-|5--5--5-5--5-4-4h5-|

                                                                         Gtr. I
                                       x2                                         
e|-------------------|-------------------|-------------------|-------------------|
B|-------------------|-------------------|-------------------|-------------------|
G|-----2---2---4p2---|-----2---2---2-----|-------------------|-------------------|
D|---4---4---4-----4-|---4---4---4---4---|---7---7---7-9p7---|---7---7---7---7---|
A|-0-----------------|-0-----------------|-9---9---9-------9-|-9---9---9---9-----|
E|-------------------|-------------------|-------------------|-------------------|
 |                                                                               |
 |                                                                               |
 |                                     x2                                Gtr. II |
e|-------------------|-------------------|-------------------|-------------------|
B|-------------------|-------------------|-------------------|-------------------|
G|-------------------|-------------------|-------------------|-------------------|
D|-------------------|-------------------|-------------------|-------------------|
A|-------------------|-------------------|-------------------|-------------------|
E|5--5--5-5--5-4-4h5-|5--5--5-5--5-4-4h5-|5--5--5-5--5-4-4h5-|5--5--5-5--5-4-4h5-|


                                                                         Gtr. I

e|-------------------|-------------------|-------------------|-------------------|
B|-------------------|-------------------|-------------------|-------------------|
G|-------------------|-------------------|-------------------|-------------------|
D|---7---7---7-9p7---|-------------------|-------------------|-------------------|
A|-9---9---9-------9-|-9-----------------|-------------------|-------------------|
E|-------------------|-------------------|-------------------|-------------------|
 |                                                                               |
 |                                                                               |
 |                                                                       Gtr. II |
e|-------------------|-------------------|---------------------------------------|
B|-------------------|-------------------|---------------------------------------|
G|-------------------|-------------------|---------------------------------------|
D|-------------------|-------------------|---------------------------------------|
A|-------------------|-------------------|---------------------------------------|
E|5--5--5-5--5-4-4h5-|-5-----------------|---------------------------------------|

                                                                         Gtr. I
   Bridge  So I cry...                      
e|---------------------------------------|---------------------------------------|
B|---------------------------------------|---------------------------------------|
G|---------------------------------------|---------------------------------------|
D|-------4------4------4-----------------|-------4------4------4-----------------|
A|-0-2-4----2-4----2-4----2-4------------|-0-2-4----2-4----2-4----2-4------------|
E|---------------------------------------|---------------------------------------|
 |       *      *      *                         *      *                        |
 |                                                                       Gtr. II |
 |                                                                               |
e|---------------------------------------|---------------------------------------|
B|---------------------------------------|---------------------------------------|
G|---------------------------------------|---------------------------------------|
D|------------------------6--------------|-7--------------------/11--------------|
A|-9-------------------------------------|---------------------------------------|
E|---------------------------------------|---------------------------------------|
 |                                                                               |
 |                                                                               |
 |                                                                       Gtr. III|
e|---------------------------------------|---------------------------------------|
B|-------7-------7-----------------------|-------7-------------------------------|
G|---4------4----------------------------|---4------4----6-----------------------|
D|-4---4-------4-------------------------|-4---4-------4-------------------------|
A|---------------------------------------|---------------------------------------|
E|---------------------------------------|---------------------------------------|



e|---------------------------------------|---------------------------------------|
B|---------------------------------------|---------------------------------------|
G|---------------------------------------|---------------------------------------|
D|-------4------4------4-----------------|-------4------4------------------------|
A|-0-2-4----2-4----2-4----2-4------------|-0-2-4----2-4--------------------------|
E|---------------------------------------|---------------------------------------|
 |       *      *      *                         *      *                        |
 |                                                                               |
 |                                                                               |
e|---------------------------------------|---------------------------------------|
B|-------7-------7-----------------------|-------7-------------------------------|
G|---4------4----------------------------|---4------4----------------------------|
D|-4---4-------4-------------------------|-4---4---------------------------------|
A|---------------------------------------|---------------------------------------|
E|---------------------------------------|---------------------------------------|
 |                                                                               |
 |                                                                               |
 |                                                                               |
e|---------------------------------------|---------------------------------------|
B|---------------------------------------|---------------------------------------|
G|------------------------1--------------|-2-------------------------------------|
D|---------------------------------------|---------------------------------------|
A|-9-------------------------------------|---------------------------------------|
E|---------------------------------------|---------------------------------------|


   Chorus 1  Listen to CD for exact rhythm                              Gtr. I x8
e|---------------------------------------|---------------------------------------|
B|---------------------------------------|---------------------------------------|
G|-7---7-7-7--7-7---7--7-7---7-7---------|---------------------------------------|
D|-7---7-7-7--7-7---7--7-7---7-7---------|-4---4-4-4--4-4---4--4-4---4-4---------|
A|-5---5-5-5--5-5---5--5-5---5-5---------|-4---4-4-4--4-4---4--4-4---4-4---------|
E|---------------------------------------|-2---2-2-2--2-2---2--2-2---2-2---------|
 |                                                                               |
 |                                                                               |
 |                                     x7                                Gtr. II |
e|---------------------------------------|---------------------------------------|
B|---------------------------------------|---------------------------------------|
G|-------2------2------2-----------------|-------2------2------------------------|
D|---4------4------4------4---4----------|---4------4----------------------------|
A|-0---0------0------0------0------------|-0---0------0--------------------------|
E|---------------------------------------|---------------------------------------|
 |                                                                               |
 |                                                                               |
 |                                                                      Gtr. III |
e|---------------------------------------|---------------------------------------|
B|---------------------------------------|---------------------------------------|
G|-----------------------------in progress---------------------------------------|
D|---------------------------------------|---------------------------------------|
A|---------------------------------------|---------------------------------------|
E|---------------------------------------|---------------------------------------|



   Verse 2  This old warship...        x2                                      x2
e|-------------------|-------------------|-------------------|-------------------|
B|-------------------|-------------------|-------------------|-------------------|
G|-----2---2---4p2---|-----2---2---2-----|-------------------|-------------------|
D|---4---4---4-----4-|---4---4---4---4---|---7---7---7-9p7---|---7---7---7---7---|
A|-0-----------------|-0-----------------|-9---9---9-------9-|-9---9---9---9-----|
E|-------------------|-------------------|-------------------|-------------------|
 |                                                                               |
 |                                                                               |
 |                                                                               |
e|---------------------------------------|---------------------------------------|
B|---------------------------------------|---------------------------------------|
G|---------------------------------------|---------------------------------------|
D|---------------------------------------|---------------------------------------|
A|---------------------------------------|---------------------------------------|
E|---------------------------------------|---------------------------------------|


                                       x2
e|-------------------|-------------------|-------------------|-------------------|
B|-------------------|-------------------|-------------------|-------------------|
G|-----2---2---4p2---|-----2---2---2-----|-------------------|-------------------|
D|---4---4---4-----4-|---4---4---4---4---|---7---7---7-9p7---|---7---7---7---7---|
A|-0-----------------|-0-----------------|-9---9---9-------9-|-9---9---9---9-----|
E|-------------------|-------------------|-------------------|-------------------|
 |                                                                               |
 |                                                                               |
 |                                                                               |
e|---------------------------------------|---------------------------------------|
B|---------------------------------------|---------------------------------------|
G|---------------------------------------|---------------------------------------|
D|---------------------------------------|---------------------------------------|
A|---------------------------------------|---------------------------------------|
E|---------------------------------------|---------------------------------------|
 |                                                                               |
 |                                                                               |
 |                                                                               |
e|---------------------------------------|---------------------------------------|
B|---------------------------------------|---------------------------------------|
G|---------------------------------------|---------------------------------------|
D|---------------------------------------|---------------------------------------|
A|---------------------------------------|---------------------------------------|
E|---------------------------------------|---------------------------------------|



e|-------------------|-------------------|-------------------|-------------------|
B|-------------------|-------------------|-------------------|-------------------|
G|-------------------|-------------------|-------------------|-------------------|
D|---7---7---7-9p7---|-------------------|-------------------|-------------------|
A|-9---9---9-------9-|-9-----------------|-------------------|-------------------|
E|-------------------|-------------------|-------------------|-------------------|
 |                                                                               |
 |                                                                               |
 |                                                                               |
e|---------------------------------------|---------------------------------------|
B|---------------------------------------|---------------------------------------|
G|---------------------------------------|---------------------------------------|
D|---------------------------------------|---------------------------------------|
A|---------------------------------------|---------------------------------------|
E|---------------------------------------|---------------------------------------|


   Chorus 2  Listen to CD for exact rhythm                              Gtr. I x8
e|---------------------------------------|---------------------------------------|
B|---------------------------------------|---------------------------------------|
G|-7---7-7-7--7-7---7--7-7---7-7---------|---------------------------------------|
D|-7---7-7-7--7-7---7--7-7---7-7---------|-4---4-4-4--4-4---4--4-4---4-4---------|
A|-5---5-5-5--5-5---5--5-5---5-5---------|-4---4-4-4--4-4---4--4-4---4-4---------|
E|---------------------------------------|-2---2-2-2--2-2---2--2-2---2-2---------|
 |                                                                               |
 |                                                                               |
 |                                                                       Gtr. II |
e|---------------------------------------|---------------------------------------|
B|---------------------------------------|---------------------------------------|
G|-------2------2------2-----------------|-------2------2------2-----------------|
D|---4------4------4------4---4----------|---4------4------4------4---4----------|
A|-0---0------0------0------0------------|-0---0------0------0------0------------|
E|---------------------------------------|---------------------------------------|
 |                                                                               |
 |                                                                               |
 |                                                                      Gtr. III |
e|---------------------------------------|---------------------------------------|
B|---------------------------------------|---------------------------------------|
G|-----------------------------in progress---------------------------------------|
D|---------------------------------------|---------------------------------------|
A|---------------------------------------|---------------------------------------|
E|---------------------------------------|---------------------------------------|


  Interlude                                                              Gtr. I
e|-------------------|-------------------|-------------------|-------------------|
B|-------------------|-------------------|-------------------|-------------------|
G|-----2---2---4p2---|-----2---2---2-----|-----2---2---4p2---|-----2---2---2-----|
D|---4---4---4-----4-|---4---4---4---4---|---4---4---4-----4-|---4---4---4---4---|
A|-0-----------------|-0-----------------|-0-----------------|-0-----------------|
E|-------------------|-------------------|-------------------|-------------------|
 |                                                                               |
 |                                                                               |
 |                                                                       Gtr. IV |
e|---------------------------------------|---------------------------------------|
B|---------------------------------------|---------------------------------------|
G|---------------------------------------|-----------------------------------2~~~|
D|---------------------------------------|-------------------------------4~~~----|
A|---------------------------------------|---------------------------------------|
E|---------------------------------------|---------------------------------------|


                                                                         Gtr. I
e|-------------------|-------------------|-------------------|-------------------|
B|-------------------|-------------------|-------------------|-------------------|
G|-------------------|-------------------|-------------------|-------------------|
D|---7---7---7-9p7---|---7---7---7---7---|---7---7---7-9p7---|---7---7-----------|
A|-9---9---9-------9-|-9---9---9---9-----|-9---9---9-------9-|-9---9---9---------|
E|-------------------|-------------------|-------------------|-------------------|
 |                                                                               |
 |                                                                               |
 |                                                                      Gtr. III |
e|-------------------|-------------------|-------------------|-------------------|
B|-------5------5----|-------5------5----|-------5------5----|-------5------5----|
G|---4------4--------|---4------4--------|---4------4--------|---4------4--------|
D|-4---4------4------|-4---4------4------|-4---4------4------|-4---4------4------|
A|-------------------|-------------------|-------------------|-------------------|
E|-------------------|-------------------|-------------------|-------------------|
 |                                                                               |
 |                                                                               |
 |                                                                       Gtr. IV |
e|---------------------------------------|---------------------------------------|
B|-5~~~~~~~~~~~~5~~~~~~~~~~~~------------|-5~~~~~~~~~~~~-------------------------|
G|-----------------------------------2~~~|--------------2~~~~~~~~~~~~------------|
D|-------------------------------6~~~----|---------------------------------------|
A|---------------------------------------|---------------------------------------|
E|---------------------------------------|---------------------------------------|


  Chorus 3                                                             Gtr. I x24
e|---------------------------------------|---------------------------------------|
B|---------------------------------------|---------------------------------------|
G|-7---7-7-7--7-7---7--7-7---7-7---------|---------------------------------------|
D|-7---7-7-7--7-7---7--7-7---7-7---------|-4---4-4-4--4-4---4--4-4---4-4---------|
A|-5---5-5-5--5-5---5--5-5---5-5---------|-4---4-4-4--4-4---4--4-4---4-4---------|
E|---------------------------------------|-2---2-2-2--2-2---2--2-2---2-2---------|
 |                                                                               |
 |                                                                               |
 |                                                                       Gtr. II |
e|---------------------------------------|---------------------------------------|
B|---------------------------------------|---------------------------------------|
G|-------2------2------2-----------------|-------2------2------2-----------------|
D|---4------4------4------4---4----------|---4------4------4------4---4----------|
A|-0---0------0------0------0------------|-0---0------0------0------0------------|
E|---------------------------------------|---------------------------------------|
 |                                                                               |
 |                                                                               |
 |                                                                      Gtr. III |
e|---------------------------------------|---------------------------------------|
B|---------------------------------------|---------------------------------------|
G|-----------------------------in progress---------------------------------------|
D|---------------------------------------|---------------------------------------|
A|---------------------------------------|---------------------------------------|
E|---------------------------------------|---------------------------------------|




e|---------------------------------------|---------------------------------------|
B|---------------------------------------|---------------------------------------|
G|---------------------------------------|---------------------------------------|
D|---------------------------------------|---------------------------------------|
A|---------------------------------------|---------------------------------------|
E|---------------------------------------|---------------------------------------|


   Outro  I try...
e|-------------------|-------------------|-------------------|-------------------|
B|-------------------|-------------------|-------------------|-------------------|
G|-----2---2---4p2---|-----2---2---2-----|-----2---2---4p2---|-----2---2---2-----|
D|---4---4---4-----4-|---4---4---4---4---|---4---4---4-----4-|---4---4---4---4---|
A|-0-----------------|-0-----------------|-0-----------------|-0-----------------|
E|-------------------|-------------------|-------------------|-------------------|
 |                                                                               |
 |                                                                               |
 |                                                                               |
e|---------------------------------------|---------------------------------------|
B|---------------------------------------|---------------------------------------|
G|---------------------------------------|---------------------------------------|
D|-4------------------4------------------|-4-------------------4-----------------|
A|-0------------------5------------------|-0-------------------5-----------------|
E|---------------------------------------|---------------------------------------|



e|-------------------|-------------------|-------------------|-------------------|
B|-------------------|-------------------|-------------------|-------------------|
G|-------------------|-------------------|-------------------|-------------------|
D|---7---7---7-9p7---|---7---7---7---7---|---7---7---7-9p7---|---7---7-----------|
A|-9---9---9-------9-|-9---9---9---9-----|-9---9---9-------9-|-9---9-------9-----|
E|-------------------|-------------------|-------------------|-------------------|
 |                                                                               |
 |                                                                               |
 |                                                                               |
e|---------------------------------------|---------------------------------------|
B|---------------------------------------|---------------------------------------|
G|---------------------------------------|---------------------------------------|
D|---------------------------------------|---------------------------------------|
A|-9------------------9------------------|-9-------------------9-----------------|
E|--------------------10-----------------|---------------------10----------------|

==================================================================================
Добавлено: 02.07.2012
Другие материалы по этой песне:
  • Аккорды и текст

Страница создана 18.05.2012
http://primanota.ru/hurt/alone-with-the-sea-chords.htm
Привет, Гость.
Предлагаем пройти революционный курс по гитаре.
Подарок от PrimaNota.Ru, забирай!