PrimaNota.ru - самый крупный в мире бесплатный архив песенных текстов, аккордов, табулатур и нот


Hurt - Unkind - текст песни, таба, видео

Регистрация Запомнить меня
Войти через:  Facebook Google Twitter Vk Yandex Mail.ru

Hurt - Unkind - текст песни, таба, видео

Печатать
Просмотров: 373
Уроки эстрадного вокала в Санкт-Петербурге
ok this song is awesome n no one else has seemed to tab it yet so I've given it a go. 
I know that this is like seriously inaccurate n only has one gtr part but it'll do till 
tabs it out properly

(Dropped-D tuning)


Intro
|--5/7---7--8-8-7-7-5-5\3---5/7-5-3--10-10-8-8-7-5\3------|
|------5--------------------------------------------------|
|---------------------------------------------------------|
|---------------------------------------------------------|
|---------------------------------------------------------|
|---------------------------------------------------------|


|--5/7-5-7--5-5\3-3-2-2--2/3\2/3----12*-------------------|
|---------------------------------------------------------|
|---------------------------------------------------------|
|---------------------------------------------------------|
|---------------------------------------------------------|
|---------------------------------------------------------|


Verse X2
|---------------------------------------------|
|---------------------------------------------|
|---------------------------------------------|
|-2-2--X-X--2-2--X-X--3-3--X-X--3-3-3-3-------|
|-2-2--X-X--2-2--X-X--3-3--X-X--3-3-3-3-------|
|-2-2--X-X--2-2--X-X--3-3--X-X--3-3-3-3-------|


Pre-Chorus (palm muted the 2nd time)
|---------------------------------------------|
|---------------------------------------------|
|---------------------------------------------|
|-2-2-2-2-2-2-2-2-2--3-3-3-3-0-0-0-0----------|
|-2-2-2-2-2-2-2-2-2--3-3-3-3-0-0-0-0----------|
|-2-2-2-2-2-2-2-2-2--3-3-3-3-0-0-0-0----------|

|---------------------------------------------|
|---------------------------------------------|
|---------------------------------------------|
|-2-2-2-2-2-2-2-2--3-3-3-3--0-----------------|
|-2-2-2-2-2-2-2-2--3-3-3-3--0-----------------|
|-2-2-2-2-2-2-2-2--3-3-3-3--0-----------------|
Добавлено: 05.07.2012
Другие материалы по этой песне:
  • Аккорды и текст

Страница создана 16.06.2012
http://primanota.ru/hurt/unkind-chords.htm
Привет, Гость.
Предлагаем пройти революционный курс по гитаре.
Подарок от PrimaNota.Ru, забирай!