PrimaNota.ru - самый крупный в мире бесплатный архив песенных текстов, аккордов, табулатур и нот


Hurt - Wars - текст песни, таба, видео

Регистрация Запомнить меня
Войти через:  Facebook Google Twitter Vk Yandex Mail.ru

Hurt - Wars - текст песни, таба, видео

Печатать
Просмотров: 275
Author/Artist: Hurt
Title: Wars
Album: Goodbye To The Machine
Transcribed by: drakken98
Simple version of the main "Lead Guitar" riff Only: Drop D Flat Tuning.

-----------------|--------------------------------|---------------------------|
-----------------|--------------------------------|---------------------------|
-----------------|--------------------------------|---------------------------|
-----------------|-0--0---------------------------|---------------------------|
-----------------|-0--0---------------------------|---------------------------|
-----------------|-0--0--4/5-7h8-10-12h13-12---12p|-4/5-7h8-10-12h13-12---12p-|
 Piano and Voc

------------------------------------------------------------------------------|
------------------------------------------------------------------------------|
------------------------------------------------------------------------------|
----------------------------------------0-------------------------------------|
----------------------------------------0-------------------------------------|
--13p12-10p8-7-5p4-0---4/5-7h8-10-12h13-0-------------------------------------|
Добавлено: 29.07.2012
Другие материалы по этой песне:
  • Аккорды и текст

Страница создана 14.04.2012
http://primanota.ru/hurt/wars-chords.htm
Привет, Гость.
Предлагаем пройти революционный курс по гитаре.
Подарок от PrimaNota.Ru, забирай!