PrimaNota.ru - самый крупный в мире бесплатный архив песенных текстов, аккордов, табулатур и нот


Hurt - Dreams Away - текст песни, таба, видео

Регистрация Запомнить меня
Войти через:  Facebook Google Twitter Vk Yandex Mail.ru

Hurt - Dreams Away - текст песни, таба, видео

Печатать
Просмотров: 119
-------------------------------------------------------------------------------
                             “Dreams Away” - HURT
-------------------------------------------------------------------------------
Tabbed by: Justin Vicars
Email:  Vicars19@live.com

Tuning: Drop D

e|-555555555555-----------------------| Played through the whole song
B|-555555555555-----------------------|    Figure out the strumming.
G|------------------------------------|
D|------------------------------------|
A|------------------------------------|
E|------------------------------------|

e|----------------------------------------------------------------|
B|----------------------------------------------------------------|
G|----------------------------------------------------------------|
D|-0-0-0-0-0---2-2-4-4/7-7—7-7-0-0-0-0---0-0-2-2-4-4-4-4-0-0-0-0--|   
A|-0-0-0-0-0---2-2-4-4/7-7-7-7-0-0-0-0---0-0-2-2-4-4-4-4-0-0-0-0--|   
E|-0-0-0-0-0---2-2-4-4/7-7-7-7-0-0-0-0---0-0-2-2-4-4-4-4-0-0-0-0--|

e|-------------------------------------------------------------|
B|-------------------------------------------------------------|
G|-------------------------------------------------------------|  
D|-2-2-4-4/7-7-7-7-0-0-0-0---0-0-2-2-4-4-4-4-0-0-0-0-----------|   
A|-2-2-4-4/7-7-7-7-0-0-0-0---0-0-2-2-4-4-4-4-0-0-0-0-----------|  
E|-2-2-4-4/7-7-7-7-0-0-0-0---0-0-2-2-4-4-4-4-0-0-0-0-----------|
  
Palm mute the next part

e|----------------------------------------------------------------|
B|----------------------------------------------------------------|
G|----------------------------------------------------------------|
D|-0-0-0-0-0---2-2-4-4/7-7—7-7-0-0-0-0---0-0-2-2-4-4-4-4-0-0-0-0--|   
A|-0-0-0-0-0---2-2-4-4/7-7-7-7-0-0-0-0---0-0-2-2-4-4-4-4-0-0-0-0--|   
E|-0-0-0-0-0---2-2-4-4/7-7-7-7-0-0-0-0---0-0-2-2-4-4-4-4-0-0-0-0--|


e|----------------------------------------------------------------|
B|----------------------------------------------------------------|
G|----------------------------------------------------------------|
D|-0-0-0-0-0---2-2-4-4/7-7—7-7-0-0-0-0---0-0-2-2-4-4-4-4-0-0-0-0--|   
A|-0-0-0-0-0---2-2-4-4/7-7-7-7-0-0-0-0---0-0-2-2-4-4-4-4-0-0-0-0--|   
E|-0-0-0-0-0---2-2-4-4/7-7-7-7-0-0-0-0---0-0-2-2-4-4-4-4-0-0-0-0--|

e|---------------------------------------------------------------------------|
B|---------------------------------------------------------------------------|
G|---------------------------------------------------------------------------|
D|-2-2-4-4/7-7-7-7-0-0-0-0---9-9-9-9-7-7-7-7-0-0-0-0-------------------------|
A|-2-2-4-4/7-7-7-7-0-0-0-0---9-9-9-9-7-7-7-7-0-0-0-0-------------------------|
E|-2-2-4-4/7-7-7-7-0-0-0-0---9-9-9-9-7-7-7-7-0-0-0-0-------------------------|


e|---------------------------------------------------------------------------|
B|---------------------------------------------------------------------------|
G|---------------------------------------------------------------------------|
D|-2-2-4-4/7-7-7-7-0-0-0-0---x-0-x-2-----------------------------------------|
A|-2-2-4-4/7-7-7-7-0-0-0-0---x-0-x-2-----------------------------------------|
E|-2-2-4-4/7-7-7-7-0-0-0-0---x-0-x-2-----------------------------------------|




e|----------------------------------------------------------------|
B|----------------------------------------------------------------|
G|----------------------------------------------------------------|
D|-0-0-0-0-0---2-2-4-4/7-7—7-7-0-0-0-0---0-0-2-2-4-4-4-4-0-0-0-0--|   
A|-0-0-0-0-0---2-2-4-4/7-7-7-7-0-0-0-0---0-0-2-2-4-4-4-4-0-0-0-0--|   
E|-0-0-0-0-0---2-2-4-4/7-7-7-7-0-0-0-0---0-0-2-2-4-4-4-4-0-0-0-0--|


e|---------------------------------------------------------------------------|
B|---------------------------------------------------------------------------|
G|------------------------------------------------4-6~---4-6~----------------|
D|-2-2-4-4/7-7-7-7-0-0-0-0---0-0-2-2-4-4-4-4-0~---4-6~---4-6~----------------|
A|-2-2-4-4/7-7-7-7-0-0-0-0---0-0-2-2-4-4-4-4-0~---2-4~---2-4~----------------|
E|-2-2-4-4/7-7-7-7-0-0-0-0---0-0-2-2-4-4-4-4-0~------------------------------|


e|---------------------------------------------------------------------------|
B|---------------------------------------------------------------------------|
G|---------------------------------------------------------------------------|
D|-0-0-0-0-0-0-0-0-2-2-4-4/7-7-7-7-0-0-0-0-0-0-0-0-0-0-2-2-4-4-4-4-0-0-0-0---|
A|-0-0-0-0-0-0-0-0-2-2-4-4/7-7-7-7-0-0-0-0-0-0-0-0-0-0-2-2-4-4-4-4-0-0-0-0---|
E|-0-0-0-0-0-0-0-0-2-2-4-4/7-7-7-7-0-0-0-0-0-0-0-0-0-0-2-2-4-4-4-4-0-0-0-0---|

e|---------------------------------------------------------------------------|
B|---------------------------------------------------------------------------|
G|---------------------------------------------------------------------------|
D|-0-0-0-0-2-2-4-4/7-7-7-7-0-0-0-0-0-0-2-2-x-x-x-x---------------------------|
A|-0-0-0-0-2-2-4-4/7-7-7-7-0-0-0-0-0-0-2-2-x-x-x-x---------------------------|
E|-0-0-0-0-2-2-4-4/7-7-7-7-0-0-0-0-0-0-2-2-x-x-x-x---------------------------|

e|--------------------------------------------------------| 
B|--------------------------------------------------------|    
G|-------------7-7-7-7-------------------x-7--------------|
D|-9-9-9-9-9\--7-7-7-7-7-7-7-9-9-9-9-9---x-7-7------------|
A|-9-9-9-9-9\--5-5-5-5-7-7-7-9-9-9-9-9---x-5-7------------|
E|-9-9-9-9-9\----------7-7-7-9-9-9-9-9-------7------------|

e|--------------------------------------------------------| 
B|--------------------------------------------------------|    
G|-------------x-7-7-7-7-------------------x-7-7----------|
D|-9-9-9-9-9\--x-7-7-7-7-7-7-7-9-9-9-9-9---x-7-7-7-7------|
A|-9-9-9-9-9\--x-5-5-5-5-7-7-7-9-9-9-9-9---x-5-5-7-7------|
E|-9-9-9-9-9\------------7-7-7-9-9-9-9-9---------7-7------|

e|--------------------------------------------------------| 
B|--------------------------------------------------------|    
G|--------------------------------------------------------|
D|-9-9-9-9-9-9-9-9-11-11-11-11-12-12-12-12----------------|
A|-9-9-9-9-9-9-9-9-11-11-11-11-12-12-12-12----------------|
E|-9-9-9-9-9-9-9-9-11-11-11-11-12-12-12-12----------------|

e|--------------------------------------------------------| 
B|--------------------------------------------------------|    
G|--------------------------------------------------------|
D|-9-9-9-9-9-9-9-9-11-11-11-11-12-12-12-12-0~-------------|
A|-9-9-9-9-9-9-9-9-11-11-11-11-12-12-12-12-0~-------------|
E|-9-9-9-9-9-9-9-9-11-11-11-11-12-12-12-12-0~-------------|





e|----------------------------------------------------------| 
B|----------------15----15---15-15---------15---------------|    
G|----------13h14--------------------13h14------------------|
D|-14-14-14----------14----14-----14------------------------|
A|----------------------------------------------------------|
E|----------------------------------------------------------|

e|----------------------------------------------------------| 
B|----------------15----15---15-15---------15---------------|    
G|----------13h14--------------------13h14------------------|
D|-14-14-14----------14----14-----14------------------------|
A|----------------------------------------------------------|
E|----------------------------------------------------------|

Palm mute this next part and gradually lift the mute

e|----------------------------------------------------------| 
B|----------------------------------------------------------|    
G|----------------------------------------------------------|
D|-0-0-0-0-0-0-0-0-0-0-0-0-0-0-0-0--------------------------|
A|-0-0-0-0-0-0-0-0-0-0-0-0-0-0-0-0--------------------------|
E|-0-0-0-0-0-0-0-0-0-0-0-0-0-0-0-0--------------------------|


e|---------------------------------------------------------------------------|
B|---------------------------------------------------------------------------|
G|---------------------------------------------------------------------------|
D|-0-0-0-0-0-0-0-0-2-2-4-4/7-7-7-7-0-0-0-0-0-0-0-0-0-0-2-2-4-4-4-4-0-0-0-0---|
A|-0-0-0-0-0-0-0-0-2-2-4-4/7-7-7-7-0-0-0-0-0-0-0-0-0-0-2-2-4-4-4-4-0-0-0-0---|
E|-0-0-0-0-0-0-0-0-2-2-4-4/7-7-7-7-0-0-0-0-0-0-0-0-0-0-2-2-4-4-4-4-0-0-0-0---|


e|---------------------------------------------------------------------------|
B|---------------------------------------------------------------------------|
G|---------------------------------------------------------------------------|
D|-0-0-0-0-0-0-0-0-2-2-4-4/7-7-7-7-0-0-0-0-0-0-0-0-0-0-2-2-4-4-4-4-0-0-0-0---|
A|-0-0-0-0-0-0-0-0-2-2-4-4/7-7-7-7-0-0-0-0-0-0-0-0-0-0-2-2-4-4-4-4-0-0-0-0---|
E|-0-0-0-0-0-0-0-0-2-2-4-4/7-7-7-7-0-0-0-0-0-0-0-0-0-0-2-2-4-4-4-4-0-0-0-0---|


e|---------------------------------------------------------------------------|
B|---------------------------------------------------------------------------|
G|---------------------------------------------------------------------------|
D|-0-0-0-0-0-0-0-0-2-2-4-4/7-7-7-7-0-0-0-0-0-0-0-0-0-0-2-2-4-4-4-4-0-0-0-0---|
A|-0-0-0-0-0-0-0-0-2-2-4-4/7-7-7-7-0-0-0-0-0-0-0-0-0-0-2-2-4-4-4-4-0-0-0-0---|
E|-0-0-0-0-0-0-0-0-2-2-4-4/7-7-7-7-0-0-0-0-0-0-0-0-0-0-2-2-4-4-4-4-0-0-0-0---|

e|---------------------------------------------------------------------------|
B|---------------------------------------------------------------------------|
G|---------------------------------------------------------------------------|
D|-0-0-0-0-0-0-0-0-2-2-4-4/7-7-7-7-0-0-0-0-0-0-0-0-0-0-2-2-4-4-4-4-0~--------|
A|-0-0-0-0-0-0-0-0-2-2-4-4/7-7-7-7-0-0-0-0-0-0-0-0-0-0-2-2-4-4-4-4-0~--------|
E|-0-0-0-0-0-0-0-0-2-2-4-4/7-7-7-7-0-0-0-0-0-0-0-0-0-0-2-2-4-4-4-4-0~--------|

| /  slide up
| \  slide down
| h  hammer-on
| p  pull-off
| ~  vibrato
| +  harmonic
| x  Mute note
===============================================================================
Добавлено: 26.04.2012
Другие материалы по этой песне:
  • Аккорды и текст

Страница создана 26.04.2012
http://primanota.ru/hurt/dreams-away-chords.htm
Привет, Гость.
Предлагаем пройти революционный курс по гитаре.
Подарок от PrimaNota.Ru, забирай!