PrimaNota.ru - самый крупный в мире бесплатный архив песенных текстов, аккордов, табулатур и нот


Hurt - Better - текст песни, таба, бас-таба, видео

Регистрация Запомнить меня
Войти через:  Facebook Google Twitter Vk Yandex Mail.ru

Hurt - Better - текст песни, таба, бас-таба, видео

Печатать
Просмотров: 169
HURT - BETTER
tuning - drop D

~ - hold
p - pull off
h - hammer on
/ - slide up
\ - slide down
// - slide up while picking
\\ - slide down while picking

---INTRO---

GUITAR 1
E|--------------------|x6
B|----1---1---1-------|
G|------0---------2~--|
D|--2-------2---2-2~--|
A|----------------0~--|
D|--------------------|

there is a very faint guitar 2 part after the first 2 repeats of this riff. 
If you care to know it, here is what it basically is, although it could 
probably be omitted.

GUITAR 2
E|----------------|x16(about)
B|----------------|
G|--9p7--7--7--5--|
D|----------------|
A|----------------|
D|----------------|


---VERSE---

  GUITAR 1
E|--------------------|x2
B|----1---1---1-------|
G|------0---------2~--|
D|--2-------2---2-2~--|
A|----------------0~--|
D|--------------------|
 |GUITAR 2
E|---------------------------------------------------|
B|---------------------------------------------------|
G|--2--9--9-9\7-7--7\5-5~---2--9--9-9/12-12--12/-5~--|
D|--2-----------------------2------------------------|
A|--0-----------------------0------------------------|
D|---------------------------------------------------|


  GUITAR 1
E|--1-1-1~-----------------------------|x2
B|--1-1-1~---3-3-3~------------3-3-----|
G|--3-3-3~---2-2-2~---2-2-2~---2-2-2~--|
D|--3-3-3~---0-0-0~---2-2-2~---0-0-2~--|
A|-----------0-0-0~---0-0-0~---0-0-0~--|
D|-------------------------------------|
 |GUITAR 2
E|-------------------------------------|x2
B|--1-1-1~-----------------------------|
G|--0-0-0~---1-1-1~---2-2-2~---2-2-2~--|
D|--2-2-2~---2-2-2~---2-2-2~---2-2-2~--|
A|--3-3-3~---2-2-2~---0-0-0~---0-0-0~--|
D|-------------------------------------|


I'm not as sure about guitar 2's part, and you could probably combine this 
to one guitar

  GUITAR 1
E|--7/8-8----8-8\7--7--6/7--5~--|x2
B|--7/8-8----8-8\7--7--6/7------|
G|------------------------------|
D|------------------------------|
A|------------------------------|
D|------------------------------|
 |GUITAR 2
E|--------------------|x2
B|----1---1---1-------|
G|------0---------2~--|
D|--2-------2---2-2~--|
A|----------------0~--|
D|--------------------|


  GUITARS 1+2
E|-------------------5~-----5~----------------------------|
B|----------------------0------0----------1~--3-1-----1~--|
G|------4-5--5p4--4-------------------------------x-2-----|
D|----2-------------------5------5~-----2-----------------|
A|--0---------------------------------0-------------------|
D|--------------------------------------------------------|


  GUITAR 1
E|--1-1-1~-----------------------------|x2
B|--1-1-1~---3-3-3~------------3-3-----|
G|--3-3-3~---2-2-2~---2-2-2~---2-2-2~--|
D|--3-3-3~---0-0-0~---2-2-2~---0-0-2~--|
A|-----------0-0-0~---0-0-0~---0-0-0~--|
D|-------------------------------------|
 |GUITAR 2
E|-------------------------------------|x2
B|--1-1-1~-----------------------------|
G|--0-0-0~---1-1-1~---2-2-2~---2-2-2~--|
D|--2-2-2~---2-2-2~---2-2-2~---2-2-2~--|
A|--3-3-3~---2-2-2~---0-0-0~---0-0-0~--|
D|-------------------------------------|


---CHORUS---

E|--------------------------|x3
B|--------------------------|
G|--------------------------|
D|--3-------0--------7------|
A|--3-x16---0-x16----7-x32--|
D|--3-------0--------7------|


---INTERLUDE---

GUITAR 1 (after 2 repeats of bass riff)
E|------------------------------------|x6
B|------------------------------------|
G|------------------------------------|
D|------------------------------------|
A|--3---5---7--7--5--3---5---7--7--7--|
D|------------------------------------|

GUITAR 2(after 4 repeats of bass riff)
E|------------------------|x4
B|------------------------|
G|--2h4-2p0-2--2h4-2p0-2--|
D|------------------------|
A|------------------------|
D|------------------------|


---SOLO---

GUITAR 1
E|-----------------------------------------------------------------12h13h14--|
B|---------------------------------------------------8-10-12h13h14-----------|
G|--2h4-2p0-2--4--b-r-2-0-2-4/6\4-0-6/8\6-0-10-8-6-4-------------------------|
D|---------------------------------------------------------------------------|
A|---------------------------------------------------------------------------|
D|---------------------------------------------------------------------------|

E|--17-----------------------------------------12-----------//-17~--|
B|-----------17-------15--------------------13----13\\1//13---------|
G|-----16-14--------------------------------------------------------|
D|--------------14-12-----------------------------------------------|
A|-----------------------14/12-11-12-14-15--------------------------|
D|------------------------------------------------------------------|

GUITAR 2
E|--------------------------|
B|--------------------------|
G|--------------------------|
D|--3-------0--------7------|
A|--3-x16---0-x16----7-x32--|
D|--3-------0--------7------|


---CHORUS---

E|--------------------------|x2|-------------------------|
B|--------------------------|  |-------------------------|
G|--------------------------|  |-------------------------|
D|--3-------0--------7------|  |--3-------5-------7------|
A|--3-x16---0-x16----7-x32--|  |--3-x16---5-x16---7-x32--|
D|--3-------0--------7------|  |--3-------5-------7------|


---INTERLUDE---

E|------------------------------|x4
B|------------------------------|
G|--2h4-2p0-2--2p0-2---2h4-2p0--|
D|------------------------------|
A|------------------------------|
D|------------------------------|


---OUTRO---

E|------------------------------------------------|
B|------------------------------------------------|
G|------------------------------------------------|
D|--3-------5--------7-------3-------0-------7-\--|
A|--3-x16---5-x16----7-x32---3-x16---0-x16---7-\--|
D|--3-------5--------7-------3-------0-------7-\--|
Добавлено: 01.03.2012
Другие материалы по этой песне:
  • Аккорды и текст

Страница создана 01.03.2012
http://primanota.ru/hurt/better-chords.htm
Привет, Гость.
Предлагаем пройти революционный курс по гитаре.
Подарок от PrimaNota.Ru, забирай!