PrimaNota.ru - самый крупный в мире бесплатный архив песенных текстов, аккордов, табулатур и нот


Haste The Day - World - таба, видео

Регистрация Запомнить меня
Войти через:  Facebook Google Twitter Vk Yandex Mail.ru

Haste The Day - World - таба, видео

Печатать
Просмотров: 91
-------------------------------------------------------------------------------
                             World - Haste the Day
-------------------------------------------------------------------------------
Tabbed by:rockonrys
E-mail:

Tuning:standard

Hey guys this is my first tab, so hope you guys like it. Feel free to comment if
you think I should make any changes or if you like it.

Guitar 1
Riff 1:
e|----------------------------------------------------------------------------|
B|----------------------------------------------------------------------------|
G|----------------------------------------------------------------------------|
D|------------6--------6--------6--------------------6---------8--------------|
A|------8--------8--------8--------8-----8-----8--------8---------8-----------|
E|---6-----6--------6--------6--------6-----6-----6--------6---------6--------|

e|----------------------------------------------------------------------------|
B|----------------------------------------------------------------------------|
G|---------------------------------------------------------------------6------|
D|---6--------------------6--------6--------6-----------------4----------4-3~-|
A|------8-----8-----6--------6--------6--------6--------4--------4------------|
E|---------6-----4-----4--------4--------4--------4--2-----2--------2---------|
Repeat Riff 1 2x

After first progression of Riff 1 Guitar 2 comes in and plays Riff 2 twice.

Guitar 2  
Riff 2:                                                          (full, then back down)
e|----------------------------------------------------------------------------|
B|-----------13/14\13---------------------------------------------------------|
G|--10-11-13----------13-12----------------13/15\13-------------------10------|
D|--------------------------13~----10-11-13----------13-11-10~---13--------10b|
A|----------------------------------------------------------------------------|
E|----------------------------------------------------------------------------|

e|----------------------------------------------------------------------------|
B|----------------------------------------------------------------------------|
G|--------10------------------------------------------------------------------|
D|--13------------------------------------------------------------------------|
A|--------------13~-----------------------------------------------------------|
E|----------------------------------------------------------------------------|



************************************

| /   slide up
| \   slide down
| ~   vibrato
| b   Bend


************************************
Добавлено: 07.11.2015
Другие материалы по этой песне:

Страница создана 07.11.2015
http://primanota.ru/haste-the-day/world-chords.htm
Привет, Гость.
Предлагаем пройти революционный курс по гитаре.
Подарок от PrimaNota.Ru, забирай!