PrimaNota.ru - самый крупный в мире бесплатный архив песенных текстов, аккордов, табулатур и нот


Haste The Day - The Quiet, Deadly Ticking - текст песни, таба, видео

Регистрация Запомнить меня
Войти через:  Facebook Google Twitter Vk Yandex Mail.ru

Haste The Day - The Quiet, Deadly Ticking - текст песни, таба, видео

Печатать
Просмотров: 72
-------------------------------------------------------------------------------
                             The Quiet Deadly Ticking - Haste The Day
-------------------------------------------------------------------------------
Tabbed by:kconrad83090
E-mail: kconrad83090@gmail.com

Tuning: Drop C

D |----------------------------------------------------|
A |----------------------------------------------------|
F |--------------7-----------7-----------7-------------|
C |--0--0--0--0--x-----------x-----------x-------------|
G |--0--0--0--0--5-----------5-----------5-------------|
C |--0--0--0--0----------------------------------------|

----------------------------------------------------|
----------------------------------------------------|
--------------5-----------5-----------5-------------|
--0--0--0--0--x-----------x-----------x-------------|
--0--0--0--0--3-----------3-----------3-------------|
--0--0--0--0----------------------------------------|

----------------------------------------------------|
----------------------------------------------------|
--------------7-----------7-----------7-------------|
--0--0--0--0--x-----------x-----------x-------------|
--0--0--0--0--5-----------5-----------5-------------|
--0--0--0--0----------------------------------------|

----------------------------------------------------|
----------------------------------------------------|
----------------------------------------------------|
--16s15s14s13s12s11s10s9s-8s-7s-6s-5s-4s-3s-2s-1----|
--16s15s14s13s12s11s10s9s-8s-7s-6s-5s-4s-3s-2s-1----|
--16s15s14s13s12s11s10s9s-8s-7s-6s-5s-4s-3s-2s-1----|
                                                       
----------------------------|----------------------------|
----------------------------|----------------------------|
--14-14-14-14-14-14-14-14---|--12-12-12-12-12-12-12-12---|
--x--x--x--x--x--x--x--x----|--x--x--x--x--x--x--x--x----|
--12-12-12-12-12-12-12-12---|--10-10-10-10-10-10-10-10---|
----------------------------|----------------------------|
                                                          
----------------------------|----------------------------|
----------------------------|----------------------------|
--17-17-17-17-17-17-17-17---|--14-14-14------------------|
--x--x--x--x--x--x--x--x----|--x--x--x-------------------|
--15-15-15-15-15-15-15-15---|--12-12-12------------------|
----------------------------|--------------3--3--5--5----|
                                                         
----------------------------|----------------------------|
----------------------------|----------------------------|
----------------------------|--------7-------------------|
--------7--------7-----7----|--7--8-----8--7-------------|
----------------------------|-----------------5--7--8----|
--5--5-----5--5-----5-------|----------------------------|
  *  *     *  *     *                                      
----------------------------|----------------------------|
----------------------------|----------------------------|
----------------------------|----------------------------|
--------7--------7-----7----|----------------------------|
----------------------------|--------7--------8-----10---|
--5--5-----5--5-----5-------|--0--5-----5--7-----8-------|
  *  *     *  *     *          *  *                 
----------------------------------------------------|
----------------------------------------------------|
----------------------------------------------------|
----------------------------------------------------|
--------------12----------12----------12------------|
--8--8--8--8--8-----------8-----------8-------------|
  *  *  *  *                                         
----------------------------------------------------|
----------------------------------------------------|
----------------------------------------------------|
----------------------------------------------------|
--------------8-----------8-----------8-------------|
--8--8--8--8--8-----------8-----------8-------------|
  *  *  *  *                                              
----------------------------|----------------------------|
----------------------------|----------------------------|
----------------------------|----------------------------|
--------7-------------------|----------------------------|
-----------------10----10---|-----8h-10----7-----7h-8----|
--7--7-----7--7-----7-------|--7--------7-----7----------|
  *  *     *  *     *          *        *     *      
----------------------------------------------------|
----------------------------------------------------|
--------------7-----------7-----------7-------------|
--0--0--0--0--x-----------x-----------x-------------|
--0--0--0--0--5-----------5-----------5-------------|
--0--0--0--0----------------------------------------|
            
----------------------------------------------------|
----------------------------------------------------|
--------------5-----------5-----------5-------------|
--0--0--0--0--x-----------x-----------x-------------|
--0--0--0--0--3-----------3-----------3-------------|
--0--0--0--0----------------------------------------|
            
----------------------------------------------------|
----------------------------------------------------|
--------------7-----------7-----------7-------------|
--0--0--0--0--x-----------x-----------x-------------|
--0--0--0--0--5-----------5-----------5-------------|
--0--0--0--0----------------------------------------|
           
----------------------------------------------------|
----------------------------------------------------|
--------------5-----------5-----------5-------------|
--0--0--0--0--x-----------x-----------x-------------|
--0--0--0--0--3-----------3-----------3-------------|
--0--0--0--0----------------------------------------|
                                                          
----------------------------|----------------------------|
----------------------------|----------------------------|
--14-14-14-14-14-14-14-14---|--12-12-12-12-12-12-12-12---|
--x--x--x--x--x--x--x--x----|--x--x--x--x--x--x--x--x----|
--12-12-12-12-12-12-12-12---|--10-10-10-10-10-10-10-10---|
----------------------------|----------------------------|
                                                          
----------------------------|----------------------------|
----------------------------|----------------------------|
--17-17-17-17-17-17-17-17---|--14-14-14------------------|
--x--x--x--x--x--x--x--x----|--x--x--x-------------------|
--15-15-15-15-15-15-15-15---|--12-12-12------------------|
----------------------------|--------------3--3--5--5----|
                                                          
----------------------------|----------------------------|
----------------------------|----------------------------|
----------------------------|--------7-------------------|
--------7--------7-----7----|--7--8-----8--7-------------|
----------------------------|-----------------5--7--8----|
--5--5-----5--5-----5-------|----------------------------|
  *  *     *  *     *                                      
----------------------------|----------------------------|
----------------------------|----------------------------|
----------------------------|----------------------------|
--------7--------7-----7----|----------------------------|
----------------------------|--------7--------8-----10---|
--5--5-----5--5-----5-------|--0--5-----5--7-----8-------|
  *  *     *  *     *                              
----------------------------------------------------|
----------------------------------------------------|
----------------------------------------------------|
----------------------------------------------------|
--------------12----------12----------12------------|
--8--8--8--8--8-----------8-----------8-------------|
  *  *  *  *                                         
----------------------------------------------------|
----------------------------------------------------|
----------------------------------------------------|
----------------------------------------------------|
--------------8-----------8-----------8-------------|
--8--8--8--8--8-----------8-----------8-------------|
  *  *  *  *                                             
----------------------------|----------------------------|
----------------------------|----------------------------|
----------------------------|----------------------------|
--------7-------------------|----------------------------|
-----------------10----10---|-----8h-10----7-----7h-8----|
--7--7-----7--7-----7-------|--7--------7-----7----------|
  *  *     *  *     *          *        *     *      
----------------------------------------------------|
----------------------------------------------------|
--------------7-----------7-----------7-------------|
--0--0--0--0--x-----------x-----------x-------------|
--0--0--0--0--5-----------5-----------5-------------|
--0--0--0--0----------------------------------------|
        
----------------------------------------------------|
----------------------------------------------------|
--------------5-----------5-----------5-------------|
--0--0--0--0--x-----------x-----------x-------------|
--0--0--0--0--3-----------3-----------3-------------|
--0--0--0--0----------------------------------------|
           
----------------------------------------------------|
----------------------------------------------------|
--------------9-----------9-----------9-------------|
--0--0--0--0--x-----------x-----------x-------------|
--0--0--0--0--7-----------7-----------7-------------|
--0--0--0--0----------------------------------------|
             
----------------------------------------------------|
----------------------------------------------------|
--------------10----------10----------10------------|
--0--0--0--0--x-----------x-----------x-------------|
--0--0--0--0--8-----------8-----------8-------------|
--0--0--0--0----------------------------------------|
                                                     
----------------------------------------------------|
----------------------------------------------------|
----------------------------------------------------|
--8--8-----8-----8-----8----------------------------|
--8--8-----8-----8-----8-----0--0--0--0--0--0--0----|
--8--8-----8-----8-----8-----0--0--0--0--0--0--0----|
                             *  *  *  *  *  *  *                                
--------------------------------------------------------------------------------
--------------------------------------------------------------------------------
--------------------------------------------------------------------------------
--8--------8-----------------8-----------------8-----------------8--------------
--8--------8-----------------8-----------------8-----------------8--------------
--8--------8-----------------8-----------------8-----------------8--------------
                                                                     
--------------------------------------------------------------------|
--------------------------------------------------------------------|
--------------------------------------------------------------------|
--------------------------------------------------------------------|
---0--------0--------0--------0-----0-----0-----0-----0-----0-------|
---0--------0--------0--------0-----0-----0-----0-----0-----0-------|
   *        *        *        *     *     *     *     *     *
----------------------------------------------------|
----------------------------------------------------|
----------------------------------------------------|
--7--7-----7-----7-----7----------------------------|
--7--7-----7-----7-----7-----0--0--0--0--0--0--0----|
--7--7-----7-----7-----7-----0--0--0--0--0--0--0----|
                             *  *  *  *  *  *  *                                       
--------------------------------------------------------------------------------
--------------------------------------------------------------------------------
--------------------------------------------------------------------------------
--7--------7-----------------7-----------------7-----------------7--------------
--7--------7-----------------7-----------------7-----------------7--------------
--7--------7-----------------7-----------------7-----------------7--------------
                                                                     
--------------------------------------------------------------------|
--------------------------------------------------------------------|
--------------------------------------------------------------------|
--------------------------------------------------------------------|
---0--------0--------0--------0-----0-----0-----0-----0-----0-------|
---0--------0--------0--------0-----0-----0-----0-----0-----0-------|
   *        *        *        *     *     *     *     *     *
----------------------------------------------------|
----------------------------------------------------|
----------------------------------------------------|
--8--8-----8-----8-----8----------------------------|
--8--8-----8-----8-----8-----0--0--0--0--0--0--0----|
--8--8-----8-----8-----8-----0--0--0--0--0--0--0----|
                             *  *  *  *  *  *  *                                       
--------------------------------------------------------------------------------
--------------------------------------------------------------------------------
--------------------------------------------------------------------------------
--8--------8-----------------8-----------------8-----------------8--------------
--8--------8-----------------8-----------------8-----------------8--------------
--8--------8-----------------8-----------------8-----------------8--------------

                                                                     
--------------------------------------------------------------------|
--------------------------------------------------------------------|
--------------------------------------------------------------------|
--------------------------------------------------------------------|
---0--------0--------0--------0-----0-----0-----0-----0-----0-------|
---0--------0--------0--------0-----0-----0-----0-----0-----0-------|
   *        *        *        *     *     *     *     *     *

                                                     
----------------------------------------------------|
----------------------------------------------------|
----------------------------------------------------|
--3--3-----3-----3-----3----------------------------|
--3--3-----3-----3-----3-----0--0--0--0--0--0--0----|
--3--3-----3-----3-----3-----0--0--0--0--0--0--0----|
                             *  *  *  *  *  *  *     
----------------------------------------------------|
----------------------------------------------------|
-----------------------------------7--------7-------|
--7--7-----7-----7-----7-----------7--------7-------|
--7--7-----7-----7-----7-----------7--------7-------|
--7--7-----7-----7-----7-----X--X-----X--X----------|
                             *  *     *  *                
----------------------------|----------------------------|
----------------------------|----------------------------|
----------------------------|----------------------------|
--8--8--8--8--8--8--8--8----|--8--8--8--8--8--8--8--8----|
--8--8--8--8--8--8--8--8----|--8--8--8--8--8--8--8--8----|
--8--8--8--8--8--8--8--8----|--8--8--8--8--8--8--8--8----|
                                                          
----------------------------|----------------------------|
----------------------------|----------------------------|
----------------------------|----------------------------|
--0--0--0--0--0--0--0--0----|--0--0--0--0--0--0--0--0----|
--0--0--0--0--0--0--0--0----|--0--0--0--0--0--0--0--0----|
--0--0--0--0--0--0--0--0----|--0--0--0--0--0--0--0--0----|
                                                          
----------------------------|----------------------------|
----------------------------|----------------------------|
----------------------------|----------------------------|
--3--3--3--3--3--3--3--3----|--3--3--3--3--3--3--3--3----|
--3--3--3--3--3--3--3--3----|--3--3--3--3--3--3--3--3----|
--3--3--3--3--3--3--3--3----|--3--3--3--3--3--3--3--3----|
                                                          
----------------------------|----------------------------|
----------------------------|----------------------------|
----------------------------|----------------------------|
--10-10-10-10-10-10-10-10---|--10-10-10-10-10-10-10-10---|
--10-10-10-10-10-10-10-10---|--10-10-10-10-10-10-10-10---|
--10-10-10-10-10-10-10-10---|--10-10-10-10-10-10-10-10---|
                                                          
----------------------------|----------------------------|
----------------------------|----------------------------|
----------------------------|----------------------------|
--5--5--5--5--5--5--5--5----|--5--5--5--5--5--5--5--5----|
--5--5--5--5--5--5--5--5----|--5--5--5--5--5--5--5--5----|
--5--5--5--5--5--5--5--5----|--5--5--5--5--5--5--5--5----|
                                                          
----------------------------|----------------------------|
----------------------------|----------------------------|
----------------------------|----------------------------|
--8--8--8--8--8--8--8--8----|--8--8--8--8--8--8--8--8----|
--8--8--8--8--8--8--8--8----|--8--8--8--8--8--8--8--8----|
--8--8--8--8--8--8--8--8----|--8--8--8--8--8--8--8--8----|
                                                          
----------------------------|----------------------------|
----------------------------|----------------------------|
----------------------------|----------------------------|
--0--0--0--0--0--0--0--0----|--0--0--0--0--0--0--0--0----|
--0--0--0--0--0--0--0--0----|--0--0--0--0--0--0--0--0----|
--0--0--0--0--0--0--0--0----|--0--0--0--0--0--0--0--0----|
                                                                          
----------------------------|----------------------------|-----------|------------|
----------------------------|----------------------------|--7~~~-----|--(7)~~~----|
----------------------------|----------------------------|--7~~~-----|--(7)~~~----|
--10-10-10-10-10-10-10-10---|--10-10-10-10-10-10-10-10---|--7~~~-----|--(7)~~~----|
--10-10-10-10-10-10-10-10---|--10-10-10-10-10-10-10-10---|--5~~~-----|--(5)~~~----|
--10-10-10-10-10-10-10-10---|--10-10-10-10-10-10-10-10---|--0~~~-----|--(0)~~~----|
                                                           LET RING    CONT...            
-----------|----------|----------------------------|----------------------------|
--12~~~----|----------|----------------------------|----------------------------|
--12~~~----|----------|--14-14-14-14-14-14-14-14---|--12-12-12-12-12-12-12-12---|
--12~~~----|----------|--x--x--x--x--x--x--x--x----|--x--x--x--x--x--x--x--x----|
--8~~~-----|----------|--12-12-12-12-12-12-12-12---|--10-10-10-10-10-10-10-10---|
--0~~~-----|----------|----------------------------|----------------------------|
 LET RING     MUTE                                                    
----------------------------|----------------------------|
----------------------------|----------------------------|
--17-17-17-17-17-17-17-17---|--14-14-14------------------|
--x--x--x--x--x--x--x--x----|--x--x--x-------------------|
--15-15-15-15-15-15-15-15---|--12-12-12------------------|
----------------------------|--------------3--3--5--5----|

                                                          
----------------------------|----------------------------|
----------------------------|----------------------------|
----------------------------|--------7-------------------|
--------7--------7-----7----|--7--8-----8--7-------------|
----------------------------|-----------------5--7--8----|
--5--5-----5--5-----5-------|----------------------------|
  *  *     *  *     *                                      
----------------------------|----------------------------|
----------------------------|----------------------------|
----------------------------|----------------------------|
--------7--------7-----7----|----------------------------|
----------------------------|--------7--------8-----10---|
--5--5-----5--5-----5-------|--0--5-----5--7-----8-------|
  *  *     *  *     *                              
----------------------------------------------------|
----------------------------------------------------|
----------------------------------------------------|
----------------------------------------------------|
--------------12----------12----------12------------|
--8--8--8--8--8-----------8-----------8-------------|
  *  *  *  *                                         
----------------------------------------------------|
----------------------------------------------------|
----------------------------------------------------|
----------------------------------------------------|
--------------8-----------8-----------8-------------|
--8--8--8--8--8-----------8-----------8-------------|
  *  *  *  *                                              
----------------------------|----------------------------|
----------------------------|----------------------------|
----------------------------|----------------------------|
--------7-------------------|----------------------------|
-----------------10----10---|-----8h-10----7-----7h-8----|
--7--7-----7--7-----7-------|--7--------7-----7----------|
  *  *     *  *     *          *        *     *      
----------------------------------------------------|
----------------------------------------------------|
----------------------------------------------------|
----------------------------------------------------|
----------------------------------------------------|
--0--0--------0--0--0--0-----0--0-----0--0----------|
  *  *        *  *  *  *     *  *     *  *           
----------------------------------------------------|
----------------------------------------------------|
----------------------------------------------------|
----------------------------------------------------|
----------------------------------------------------|
--------0--0--0--0--0--0-----0--0-----0--0----------|
        *  *  *  *  *  *     *  *     *  *               
----------------------------------------------------|
----------------------------------------------------|
----------------------------------------------------|
----------------------------------------------------|
----------------------------------------------------|
--0--0--------0--0--0--0-----0--0-----0--0----------|
  *  *        *  *  *  *     *  *     *  *            
----------------------------------------------------|
----------------------------------------------------|
----------------------------------------------------|
----------------------------------------------------|
----------------------------------------------------|
--------0--0--0--0--0--0-----0--0-----0--0----------|
        *  *  *  *  *  *     *  *     *  *             
----------------------------------------------------|
----------------------------------------------------|
----------------------------------------------------|
----------------------------------------------------|
----------------------------------------------------|
--0--0--------0--0--0--0-----0--0-----0--0----------|
  *  *        *  *  *  *     *  *     *  *            
----------------------------------------------------|
----------------------------------------------------|
----------------------------------------------------|
----------------------------------------------------|
----------------------------------------------------|
--------0--0--0--0--0--0-----0--0-----0--0----------|
        *  *  *  *  *  *     *  *     *  *             
----------------------------------------------------|
----------------------------------------------------|
----------------------------------------------------|
----------------------------------------------------|
----------------------------------------------------|
--0--0--------0--0--0--0-----0--0-----0--0----------|
  *  *        *  *  *  *     *  *     *  *            
----------------------------------------------------|
----------------------------------------------------|
----------------------------------------------------|
----------------------------------------------------|
--------------------------------4~------------------|
--------0--0--0--0--0--0----------------------------|
        *  *  *  *  *  *        +                    
----------------------------------------------------|
----------------------------------------------------|
----------------------------------------------------|
----------------------------------------------------|
--8h-12h8h-0--8h-0--5h-8h-7h-0--0h-5h-7h-5--0--0----|
----------------------------------------------------|
                                                     
----------------------------------------------------|
----------------------------------------------------|
----------------------------------------------------|
----------------------------------------------------|
--8h-12h8h-0--8h-0--5h-8h-7h-0--0h-5h-7h-5--0--0----|
----------------------------------------------------|
                                                     
----------------------------------------------------|
----------------------------------------------------|
----------------------------------------------------|
----------------------------------------------------|
--8h-12h8h-0--8h-0--5h-8h-7h-0--0h-5h-7h-5--0--0----|
----------------------------------------------------|
                                                     
----------------------------------------------------|
----------------------------------------------------|
----------------------------------------------------|
--------------------------------------------10h12---|
--8h-12h8h-0--8h-0--7s-8h-12h0--8s-10h15h0----------|
----------------------------------------------------|
                                                     
----------------------------------------------------|
----------------------------------------------------|
----------------------------------------------------|
----------------------------------------------------|
--8h-12h8h-0--8h-0--5h-8h-7h-0--0h-5h-7h-5--0--0----|
----------------------------------------------------|
                                                     
----------------------------------------------------|
----------------------------------------------------|
----------------------------------------------------|
----------------------------------------------------|
--8h-12h8h-0--8h-0--5h-8h-7h-0--0h-5h-7h-5--0--0----|
----------------------------------------------------|
                                                     
----------------------------------------------------|
----------------------------------------------------|
----------------------------------------------------|
----------------------------------------------------|
--8h-12h8h-0--8h-0--5h-8h-7h-0--0h-5h-7h-5--0--0----|
----------------------------------------------------|
                                                     
----------------------------------------------------|
----------------------------------------------------|
----------------------------------------------------|
--------------------------------------------10h12---|
--8h-12h8h-0--8h-0--7s-8h-12h0--8s-10h15h0----------|
----------------------------------------------------|
                                                          
----------------------------|----------------------------|
----------------------------|----------------------------|
--7--7--7--7--9--9--9--9----|--10-10-10-10-12-12-12-12---|
--x--x--x--x--x--x--x--x----|--x--x--x--x--x--x--x--x----|
--5--5--5--5--7--7--7--7----|--8--8--8--8--10-10-10-10---|
----------------------------|----------------------------|
                                                          
----------------------------|----------------------------|
----------------------------|----------------------------|
--10-10-10-10-12-12-12-12---|--14-14-14-14-15-15-15-15---|
--x--x--x--x--x--x--x--x----|--x--x--x--x--x--x--x--x----|
--8--8--8--8--10-10-10-10---|--12-12-12-12-13-13-13-13---|
----------------------------|----------------------------|
                                                          
----------------------------|----------------------------|
----------------------------|----------------------------|
----------------------------|----------------------------|
--8--8--8--8--8--8--8--8----|--8--8--8--8--8--8--8--8----|
--8--8--8--8--8--8--8--8----|--8--8--8--8--8--8--8--8----|
--8--8--8--8--8--8--8--8----|--8--8--8--8--8--8--8--8----|
                                                          
----------------------------|----------------------------|
----------------------------|----------------------------|
----------------------------|----------------------------|
--0--0--0--0--0--0--0--0----|--0--0--0--0--0--0--0--0----|
--0--0--0--0--0--0--0--0----|--0--0--0--0--0--0--0--0----|
--0--0--0--0--0--0--0--0----|--0--0--0--0--0--0--0--0----|
                                                          
----------------------------|----------------------------|
----------------------------|----------------------------|
----------------------------|----------------------------|
--3--3--3--3--3--3--3--3----|--3--3--3--3--3--3--3--3----|
--3--3--3--3--3--3--3--3----|--3--3--3--3--3--3--3--3----|
--3--3--3--3--3--3--3--3----|--3--3--3--3--3--3--3--3----|
                                                          
----------------------------|----------------------------|
----------------------------|----------------------------|
----------------------------|----------------------------|
--10-10-10-10-10-10-10-10---|--10-10-10-10-10-10-10-10---|
--10-10-10-10-10-10-10-10---|--10-10-10-10-10-10-10-10---|
--10-10-10-10-10-10-10-10---|--10-10-10-10-10-10-10-10---|
                                                          
----------------------------|----------------------------|
----------------------------|----------------------------|
----------------------------|----------------------------|
--5--5--5--5--5--5--5--5----|--5--5--5--5--5--5--5--5----|
--5--5--5--5--5--5--5--5----|--5--5--5--5--5--5--5--5----|
--5--5--5--5--5--5--5--5----|--5--5--5--5--5--5--5--5----|
                                                          
----------------------------|----------------------------|
----------------------------|----------------------------|
----------------------------|----------------------------|
--8--8--8--8--8--8--8--8----|--8--8--8--8--8--8--8--8----|
--8--8--8--8--8--8--8--8----|--8--8--8--8--8--8--8--8----|
--8--8--8--8--8--8--8--8----|--8--8--8--8--8--8--8--8----|
                                                          
----------------------------|----------------------------|
----------------------------|----------------------------|
----------------------------|----------------------------|
--0--0--0--0--0--0--0--0----|--0--0--0--0--0--0--0--0----|
--0--0--0--0--0--0--0--0----|--0--0--0--0--0--0--0--0----|
--0--0--0--0--0--0--0--0----|--0--0--0--0--0--0--0--0----|
                                                                          
----------------------------|----------------------------|-----------|------------|
----------------------------|----------------------------|--7~~~-----|--(7)~~~----|
----------------------------|----------------------------|--7~~~-----|--(7)~~~----|
--10-10-10-10-10-10-10-10---|--10-10-10-10-10-10-10-10---|--7~~~-----|--(7)~~~----|
--10-10-10-10-10-10-10-10---|--10-10-10-10-10-10-10-10---|--5~~~-----|--(5)~~~----|
--10-10-10-10-10-10-10-10---|--10-10-10-10-10-10-10-10---|--0~~~-----|--(0)~~~----|
                                                           LET RING    CONT...          
---------|------------|----------------------------------------------------|
--12~~~--|--(12)~~~---|----------------------------------------------------|
--12~~~--|--(12)~~~---|--------------7-----------7-----------7-------------|
--12~~~--|--(12)~~~---|--0--0--0--0--x-----------x-----------x-------------|
---8~~~--|---(8)~~~---|--0--0--0--0--5-----------5-----------5-------------|
---0~~~--|---(0)~~~---|--0--0--0--0----------------------------------------|
LET RING    CONT...             
----------------------------------------------------|
----------------------------------------------------|
--------------5-----------5-----------5-------------|
--0--0--0--0--x-----------x-----------x-------------|
--0--0--0--0--3-----------3-----------3-------------|
--0--0--0--0----------------------------------------|
         
----------------------------------------------------|
----------------------------------------------------|
--------------7-----------7-----------7-------------|
--0--0--0--0--x-----------x-----------x-------------|
--0--0--0--0--5-----------5-----------5-------------|
--0--0--0--0----------------------------------------|

----------------------------------------------------||
----------------------------------------------------||
--------------5-----------5-----------5-------------||
--0--0--0--0--x-----------x-----------x-------------||
--0--0--0--0--3-----------3-----------3-------------||
--0--0--0--0----------------------------------------||

************************************

| /   slide up
| \   slide down
| h   hammer-on
| p   pull-off
| ~   vibrato
| +   harmonic
| *   Mute note
| b   Bend
| pb  Pre-bend
| br  Bend release
| pbr Pre-bend release
| brb Bend release bend

************************************
Добавлено: 12.04.2016
Другие материалы по этой песне:

Страница создана 28.07.2014
http://primanota.ru/haste-the-day/quiet-deadly-ticking-chords.htm
Привет, Гость.
Предлагаем пройти революционный курс по гитаре.
Подарок от PrimaNota.Ru, забирай!