PrimaNota.ru - самый крупный в мире бесплатный архив песенных текстов, аккордов, табулатур и нот


Haste The Day - Crush Resistance - таба, видео

Регистрация Запомнить меня
Войти через:  Facebook Google Twitter Vk Yandex Mail.ru

Haste The Day - Crush Resistance - таба, видео

Печатать
Просмотров: 58
[Crush Resistance]
[Attack Of The Wolf King]
[Haste The Day]

Tuning: CGCFAD (Drop C)

As Requested By: Osakamitsu

[Riff 1a, Guitar 1 & 2] - [00:00] - [00:02]
- -------------------------------------------|
- -----------------10h11p10------------------|
- ------10h12p10h12--------10h12--10---------|
- -12h14------------------------14--12h14p11-|
- -------------------------------------------|
- -------------------------------------------|
-
- -------------------------------------------|
- -------------------------------------------|
- -------------------------------------------|
- -8~---------------3~------------5~---------|
- -8~---------------3~------------5~---------|
- -8~---------------3~------------5~---------|

[Riff 2a] - [00:02] - [00:32]
- ------------------------------------------------------------------------|
- ------------------------------------------------------------------------|
- ------------------------------------------------------------------------|
- -----------------------------------8------------------------------------|
- -0000000000000000--------0000------8-88888888888888------------8/121212-|
- -00000000000000000-00-00-00003/5h7-8-888888888888888-88-88-88887/101010-|
PM ................  .  .  ....        ..............  .  .  . ..

- ------------------------------------------------------------------------|
- ------------------------------------------------------------------------|
- ------------------------------------------------------------------------|
- -----------------------------------8------------------------------------|
- ---00000000000000--------0000------8-88888888888888------------8/121212-|
- -0-000000000000000-00-00-00003/5h7-8-888888888888888-88-88-88887/101010-|
PM   ..............  .  .  ....        ..............  .  .  . ..

- ------------------------------------------------------------------------|
- ------------------------------------------------------------------------|
- ------------------------------------------------------------------------|
- -----------------------------------8------------------------------------|
- ---00000000000000--------0000------8-88888888888888------------8/121212-|
- -0-000000000000000-00-00-00003/5h7-8-888888888888888-88-88-88887/101010-|
PM   ..............  .  .  ....        ..............  .  .  . ..

- ------------------------------------------------------------------------|
- ------------------------------------------------------------------------|
- ------------------------------------------------------------------------|
- -----------------------------------8------------------------------------|
- ---00000000000000--------0000------8-88888888888888------------8/121212-|
- -0-000000000000000-00-00-00003/5h7-8-888888888888888-88-88-88887/101010-|
PM   ..............  .  .  ....        ..............  .  .  . ..

[Riff 2b, Guitar 1 & 2] - [00:02] - [00:32]
- --------------------------------------------------------------------------|
- ------------------------------------------------------10------------------|
- --------------------------------------------------------12p10p9-12p10p9---|
- -12p0-0000-10p0-7p0-00-------------12p0-0-12p0-0-12p0------------------0--|h
- -----------------------10h13-12h15----------------------------------------|
- --------------------------------------------------------------------------|
PM      ....          ..                  .      .
- -------------------------------------------------------------------------|
- -------------------------------------------------------------------------|
- -------------------------------------------------------------------------|
- -------------------------------------------------------------------------|
- -------------------------------------------------------------------------|
- -------------------------------------------------------------------------|


- ----------------------------------------------------------------------------------------|
- ----------------------------------------------------------------------------------------|
- ------------------------/  3  \-/  3  \----------------------------------------14h15h18-|
- h12p8-8888-12p8-11p8-88-8h11h12-11h12h14-15p12-12-15p12-12-15p12-12-15-14-17-15---------|
- ----------------------------------------------------------------------------------------|
- ----------------------------------------------------------------------------------------|
PM      ....           ..                        ..       ..       ..    ..
- ----------------------------------------------------------------------------------------|
- ----------------------------------------------------------------------------------------|
- ----------------------------------------------------------------------------------------|
- ----------------------------------------------------------------------------------------|
- ----------------------------------------------------------------------------------------|
- ----------------------------------------------------------------------------------------|


- --------------------------------------------------------------------------|
- ------------------------------------------------------10------------------|
- --------------------------------------------------------12p10p9-12p10p9---|
- -12p0-0000-10p0-7p0-00-------------12p0-0-12p0-0-12p0------------------0--|h
- -----------------------10h13-12h15----------------------------------------|
- --------------------------------------------------------------------------|
PM      ....          ..                  .      .
- -------------------------------------------------------------------------|
- -------------------------------------------------------------------------|
- -------------------------------------------------------------------------|
- -------------------------------------------------------------------------|
- -------------------------------------------------------------------------|
- -------------------------------------------------------------------------|


- -----------------------------------------------------------------------------------------|
- -----------------------------------------------------------------------------------------|
- ------------------------/  3  \-/  3  \-----------------------------------------14h15h18-|
- h12p8-8888-12p8-11p8-88-8h11h12-11h12h14-15p12-12-15p12-12-15p12-12-15-14-17-15----------|
- -----------------------------------------------------------------------------------------|
- -----------------------------------------------------------------------------------------|
PM      ....           ..                        ..       ..       ..    ..
- -----------------------------------------------------------------------------------------|
- -----------------------------------------------------------------------------------------|
- --------------------------------------------------------------------------------17h18h21-|
- -----------------------------------------------------------------15-19-17-20-19----------|
- -----------------------------------------------------------------------------------------|
- -----------------------------------------------------------------------------------------|
PM                                                                 ..    ..

- -----------------------------------------------------------------------------|
- -------------------------------------------------------10--------------------|
- ----------------------------------------------------------12p10p9-12p10p9----|
- -12p0-0000-10p0-7p0--00-------------12p0-0-12p0-0-12p0--------------------0--|h
- ------------------------10h13-12h15------------------------------------------|
- -----------------------------------------------------------------------------|
PM      ....           ..                  .      .
- -----------------------------------------------------------------------------|
- -----------------------------------------------------------------------------|
- -------------------------------------------------------17p15p14---15p14------|
- -15p0-0000-14p0-10p0-00-------------15p0-0-15p0-0-15p0---------17------17-0--|h
- ------------------------13h17-15h19------------------------------------------|
- -----------------------------------------------------------------------------|
PM      ....           ..                  .      .


- ---------------------------------------------------------------------------------------------------|
- ---------------------------------------------------------------------------------------------------|
- ---------------------------------/  3  \--/  3  \-----------------------------------------14h15h18-|
- h12p8--8-8-8-8--12p8--11p8--8-8--8h11h12--11h12h14-15p12-12-15p12-12-15p12-12-15-14-17-15----------|
- ---------------------------------------------------------------------------------------------------|
- ---------------------------------------------------------------------------------------------------|
PM       .......              ...                          ..       ..       ..    ..
- ---------------------------------------------------------------------------------------------------|
- ---------------------------------------------------------------------------------------------------|
- ----------------------------------/  3  \--/  3  \----------------------------------------14h15h18-|
- h15p12-12121212-15p12-14p12-1212-12h14h15-14h15h17-19p15-15-19p15-15-19p15-15-19-17-20-19----------|
- ---------------------------------------------------------------------------------------------------|
- ---------------------------------------------------------------------------------------------------|
PM       .......              ....                         ..       ..       ..    ..


- -----------------------------------------------------------------------------|
- -------------------------------------------------------10--------------------|
- ----------------------------------------------------------12p10p9-12p10p9----|
- -12p0-0000-10p0-7p0--00-------------12p0-0-12p0-0-12p0--------------------0--|h
- ------------------------10h13-12h15------------------------------------------|
- -----------------------------------------------------------------------------|
PM      ....           ..                  .      .
- -----------------------------------------------------------------------------|
- -----------------------------------------------------------------------------|
- -------------------------------------------------------17p15p14---15p14------|
- -15p0-0000-14p0-10p0-00-------------15p0-0-15p0-0-15p0---------17------17-0--|h
- ------------------------13h17-15h19------------------------------------------|
- -----------------------------------------------------------------------------|
PM      ....           ..                  .      .


- ------------------------------------------------------------------------------------------------|
- ---------------------------------------------------------------------10h11p10-------------------|
- ---------------------------------/  3  \--/  3  \--------10h12p10h12----------10h12--10---------|
- h12p8--8-8-8-8--12p8--11p8--8-8--8h11h12--11h12h14-12h14---------------------------14--12h14p11-|
- ------------------------------------------------------------------------------------------------|
- ------------------------------------------------------------------------------------------------|
PM       .......              ...
- ------------------------------------------------------------------------------------------------|
- ---------------------------------------------------------------------13h15p13-------------------|
- ----------------------------------/  3  \--/  3  \-------14h15p14h15----------14h15--14---------|
- h15p12-12121212-15p12-14p12-1212-12h14h15-14h15h17-15h17---------------------------17--15h17p14-|
- ------------------------------------------------------------------------------------------------|
- ------------------------------------------------------------------------------------------------|
PM       .......              ....


[Riff 3, Guitar 1 & 2] - [00:32] - [01:02]
- -------------------------------------------------------------------------------|
- -------------------------------------------------------------------------------|
- -------------------------------------------------------------------------------|
- ---------------------------------------8--------------------8------------------|
- -00000000000000-5h7h8--8--8--7--8h10---8-8888888888888h10h12---12--10--8--4444-|
- -000000000000000-----00-00-00-00----00-8-888888888888---------8--88---8-002222-|
PM ..............      .. .. .. ..    ..   ............         .  ..   . ..
- -------------------------------------------------------------------------------|
- -------------------------------------------------------------------------------|
- -------------------------------------------------------------------------------|
- ---------------------------------------8--------------------8------------------|
- -00000000000000-5h7h8--8--8--7--8h10---8-8888888888888h10h12---12--10--8--4444-|
- -000000000000000-----00-00-00-00----00-8-888888888888---------8--88---8-002222-|
PM ..............      .. .. .. ..    ..   ............         .  ..   . ..


- --------------------------------------------------------------------------------------------|
- --------------------------------------------------------------------------------------------|
- ---------------------------------------12---------1212-12-------------12-1212----9-99--6-66-|
- ---------------------------------------12---------1212-12-------------12-1212----9-99--5-55-|
- ---000000000000-5h7h8--8--8--7--8h10---10-101010101010-10-10101010101010-101010107-77774-44-|
- -0-0000000000000-----00-00-00-00----00-8--8-8-8-8-8-8--8--8-8-8-8-8-8-8--8-8-8-8-5-55552-22-|
PM   ............      .. .. .. ..    ..    ........        ............       ....    ..
- --------------------------------------------------------------------------------------------|
- --------------------------------------------------------------------------------------------|
- ---------------------------------------12---------1212-12-------------12-1212----9-99--6-66-|
- ---------------------------------------12---------1212-12-------------12-1212----9-99--5-55-|
- ---000000000000-5h7h8--8--8--7--8h10---10-101010101010-10-10101010101010-101010107-77774-44-|
- -0-0000000000000-----00-00-00-00----00-8--8-8-8-8-8-8--8--8-8-8-8-8-8-8--8-8-8-8-5-55552-22-|
PM   ............      .. .. .. ..    ..    ........        ............       ....    ..


- -------------------------------------------------------------------------------------|
- -------------------------------------------------------------------------------------|
- -------------------------------------------------------------------------------------|
- ---------------------------------------------8--------------------8------------------|
- ---000000000000--5h7h8---8---8---7---8h10----8-8888888888888h10h12---12--10--8--4444-|
- -0-0000000000000-------00--00--00--00-----00-8-888888888888---------8--88---8-002222-|
PM ..............        ..  ..  ..  ..     ..   ............         .  ..   . ..
- -------------------------------------------------------------------------------------|
- -------------------------------------------------------------------------------------|
- ------------------------------------------------------------------7------------------|
- ---------------------------------------------8-------------7h8h10----10--8---7-------|
- ---000000000000-8h10h12--12--12--10--12/13---8-888888888888---------------------4444-|
- -0-0000000000000-------00--00--00--00-----00-8-888888888888---------8--88---8-002222-|
PM ..............        .. .. .. ..    ..   ............             .  ..   . ..


- --------------------------------------------------------------------------------------------|
- --------------------------------------------------------------------------------------------|
- ---------------------------------------12---------1212-12-------------12-1212----9-99--6-66-|
- ---------------------------------------12---------1212-12-------------12-1212----9-99--5-55-|
- ---000000000000-5h7h8--8--8--7--8h10---10-101010101010-10-10101010101010-101010107-77774-44-|
- -0-0000000000000-----00-00-00-00----00-8--8-8-8-8-8-8--8--8-8-8-8-8-8-8--8-8-8-8-5-55552-22-|
PM   ............      .. .. .. ..    ..    ........        ............       ....    ..
- --------------------------------------------------------------------------------------------|
- --------------------------------------------------------------------------------------------|
- ---------------------------------------12---------1212-12-------------12-1212----9-99--6-66-|
- ---------------------------------------12---------1212-12-------------12-1212----9-99--5-55-|
- ---000000000000-5h7h8--8--8--7--8h10---10-101010101010-10-10101010101010-101010107-77774-44-|
- -0-0000000000000-----00-00-00-00----00-8--8-8-8-8-8-8--8--8-8-8-8-8-8-8--8-8-8-8-5-55552-22-|
PM   ............      .. .. .. ..    ..    ........        ............       ....    ..


[Riff 4, Guitar 1 & 2] - [01:02] - [01:17]
- ---------------------------------------------------------------------------|
- ---------------------------------------------------------------------------|
- ---7-7---7-7-------10---9-9---9\6--------------------------------------2---|
- ---x-x---x-x-------x----x-x---x-x-----7h8---8h10-----10h12-------------2---|
- -005-5-005-5-0000008--007-7-007\4-------------------------008\7-007-4444---|
- -00----00----000000---00----00----8888----88-----8888-----007\5-005-2222---|
PM ..    ..    ......   ..    ..    ....    ..     ....     ..    .......

- ---------------------------------------------------------------------------|
- ---------------------------------------------------------------------------|
- ---7-7---7-7-------10---9-9---9\6--------------------------------------2---|
- ---x-x---x-x-------x----x-x---x-x--------------------------------------2---|
- -005-5-005-5-0000008--007-7-007\4-----8h10--10h12----10h13008\7-007-4444---|
- -00----00----000000---00----00----8888----88-----8888-----007\5-005-2222---|
PM ..    ..    ......   ..    ..    ....    ..     ....     ..    .......


- ---------------------------------------------------------------------------|
- ---------------------------------------------------------------------------|
- ---7-7---7-7-------10---9-9---9\6--------------------------------------2---|
- ---x-x---x-x-------x----x-x---x-x--------------------------------------2---|
- -005-5-005-5-0000008--007-7-007\4-----8h10--10h12----10h13008\7-007-4444---|
- -00----00----000000---00----00----8888----88-----8888-----007\5-005-2222---|
PM ..    ..    ......   ..    ..    ....    ..     ....     ..    .......
- ---------------------------------------------------------------------------|
- ---------------------------------------------------------------------------|
- ---7-7---7-7-------10---9-9---9\6--------------------------------------2---|
- ---x-x---x-x-------x----x-x---x-x-----7h8---8h10-----10h12-------------2---|
- -005-5-005-5-0000008--007-7-007\4-------------------------008\7-007-4444---|
- -00----00----000000---00----00----8888----88-----8888-----007\5-005-2222---|
PM ..    ..    ......   ..    ..    ....    ..     ....     ..    .......


[Riff 5, Guitar 1 & 2] - [01:17] - [01:50]
- -------------------------------------------------------------------------------------------------|
- -------------------------------------------------------------------------------------------------|
- -------------------------------------------------------------------------------------------------|
- -8---------------7-------7-------0---------------5---------------8---------------7---------------|
- -8(x16)----------8(x8)---7(x8)---0(x16)----------5(x16)----------8(x16)----------7(x16)----------|
- -8---------------7-------7-------0---------------5---------------8---------------7---------------|

- -------------------------------------------------------------------------------------------------|
- -------------------------------------------------------------------------------------------------|
- -----------------14(x16)---------------------------------------------------------12(x8)--14(x8)--|
- -12(x8)--15(x8)------------------12(x8)--15(x8)--14(x8)----------12(x8)--15(x8)------------------|
- ---------------------------------------------------------15(x8)----------------------------------|
- -------------------------------------------------------------------------------------------------|


- ---------------------------------|
- ---------------------------------|
- ---------------------------------|
- ---------------------------------|   (notes don't match up here)
- -0000-0-0-000000-0000-0-0-000000-|
- -0000-0-0-000000-0000-0-0-000000-|
PM ...............................

- -13------13------13h15p13--13------13------13------13h15p13--13-------|
- ---15--15--15--15--------17--15--15--15--15--15--15--------17--15--15-|
- -----14------14----------------14------14------14----------------14---|
- ----------------------------------------------------------------------|
- ----------------------------------------------------------------------|
- ----------------------------------------------------------------------|


- -------------------------------------------------------------------------------------------------|
- -------------------------------------------------------------------------------------------------|
- -------------------------------------------------------------------------------------------------|
- -8---------------7-------7-------0---------------5---------------8---------------7---------------|
- -8(x16)----------8(x8)---7(x8)---0(x16)----------5(x16)----------8(x16)----------7(x16)----------|
- -8---------------7-------7-------0---------------5---------------8---------------7---------------|

- -------------------------------------------------------------------------------------------------|
- -------------------------------------------------------------------------------------------------|
- -----------------14(x16)---------------------------------------------------------12(x8)--14(x8)--|
- -12(x8)--15(x8)------------------12(x8)--15(x8)--14(x8)----------12(x8)--15(x8)------------------|
- ---------------------------------------------------------15(x8)----------------------------------|
- -------------------------------------------------------------------------------------------------|


- ---------------------------------|
- ---------------------------------|
- ---------------------------------|
- ---------------------------------|   (notes don't match up here)
- -0000-0-0-000000-0000-0-0-000000-|
- -0000-0-0-000000-0000-0-0-000000-|
PM ...............................

- -13------13------13h15p13--13------13------13------13h15p13--13-------|
- ---15--15--15--15--------17--15--15--15--15--15--15--------17--15--15-|
- -----14------14----------------14------14------14----------------14---|
- ----------------------------------------------------------------------|
- ----------------------------------------------------------------------|
- ----------------------------------------------------------------------|


- ---------------------------------|
- ---------------------------------|
- ---------------------------------|
- -8---------------7---------------|
- -8(x16)----------7(x16)----------|
- -8---------------7---------------|

- ---------------------------------|
- ---------------------------------|
- -----------------12(x8)--14(x8)--|
- --12(x8)--15(x8)-----------------|
- ---------------------------------|
- ---------------------------------|


[Riff 6] - [01:50] - [02:04]
- -------------------------------------------------------------------------------|
- -------------------------------------------------------------------------------|
- -------------------------------------------------------------------------------|
- ---------------------------------------8--------------------8------------------|
- -00000000000000-5h7h8--8--8--7--8h10---8-8888888888888h10h12---12--10--8--4444-|
- -000000000000000-----00-00-00-00----00-8-888888888888---------8--88---8-002222-|
PM ..............      .. .. .. ..    ..   ............         .  ..   . ..

- --------------------------------------------------------------------------------------------|
- --------------------------------------------------------------------------------------------|
- ---------------------------------------12---------1212-12-------------12-1212----9-99--6-66-|
- ---------------------------------------12---------1212-12-------------12-1212----9-99--5-55-|
- ---000000000000-5h7h8--8--8--7--8h10---10-101010101010-10-10101010101010-101010107-77774-44-|
- -0-0000000000000-----00-00-00-00----00-8--8-8-8-8-8-8--8--8-8-8-8-8-8-8--8-8-8-8-5-55552-22-|
PM   ............      .. .. .. ..    ..    ........        ............       ....    ..

[Riff 7] - [02:04] - [02:25]
- ------------------------------------------------------------------|
- ------------------------------------------------------------------|
- --------------------------------------------------------------2---|
- --------------------------------------------------------------2---|
- -00000-----00000-00-0-00-00000-0-00000-----000000008\7-007-4444---|
- -00000-----00000-00-0-00-00000-0-00000-----000000007\5-005-2222---|
PM ..................................................    ..  ...

- ------------------------------------------------------------------|
- ------------------------------------------------------------------|
- --------------------------------------------------------------2---|
- --------------------------------------------------------------2---|
- -00000-----00000-00-0-00-00000-0-00000-----000000008\7-007-4444---|
- -00000-----00000-00-0-00-00000-0-00000-----000000007\5-005-2222---|
PM ..................................................    ..  ...

- --------------------------------------------------|
- --------------------------------------------------|
- --------------------------------------------------|
- --------------10----------------------------------|
- -774-4-008-88810--0000-0-0-000000-0000-0-0-000----|
- -552-2-008-88810--0000-0-0-000000-0000-0-0-000----|
PM ..    .......    ............................

[Riff 5, Guitar 1 & 2] - [02:25] - [02:58]

[Riff 8] - [02:58] - [03:16]
- ------------------------------------------------------------------|
- ------------------------------------------------------------------|
- ------------------------------------------------------------------|
- ------------------------------------------------------------------|
- -00-0-00000-0-00-------0000-0-00000-0-00000-0-00-------000-0-0000-|
- -00-0-00000-0-00-------0000-0-00000-0-00000-0-00-------000-0-0000-|
PM ................................................................

- ------------------------------------------------------------------|
- ------------------------------------------------------------------|
- ------------------------------------------------------------------|
- ------------------------------------------------------------------|
- -00-0-00000-0-00-------0000-0-00000-0-00000-0-00-------000-0-0000-|
- -00-0-00000-0-00-------0000-0-00000-0-00000-0-00-------000-0-0000-|
PM ................................................................

- ------------------------------------------------------------------|
- ------------------------------------------------------------------|
- ------------------------------------------------------------------|
- -0~---------------------------------------------------------------|
- -0~---------------------------------------------------------------|
- -0~---------------------------------------------------------------|

[Symbols]

PM... Palm Mute notes with (...) under them
h     Hammer On
p     Pull Off
/     Slide Up
\     Slide Down
x     Dead Note
b     Bend
p     Pre-Bend
r     Release Bend
(x )  Play Notes x amount of times
~     Let Ring

:)
Добавлено: 07.11.2015
Вам также может быть интересно:
Другие материалы по этой песне:

Страница создана 07.11.2015
http://primanota.ru/haste-the-day/crush-resistance-chords.htm
Привет, Гость.
Предлагаем пройти революционный курс по гитаре.
Подарок от PrimaNota.Ru, забирай!