PrimaNota.ru - самый крупный в мире бесплатный архив песенных текстов, аккордов, табулатур и нот


Haste The Day - Porcelain - текст песни, таба, видео

Регистрация Запомнить меня
Войти через:  Facebook Google Twitter Vk Yandex Mail.ru

Haste The Day - Porcelain - текст песни, таба, видео

Печатать
Просмотров: 107
D------------------------------------------------------------------------------|
A-10-10-10-10-10-10-10-10-10-10-10-10-14-14-14-14-9-9-9-9-9-9-9-9-9-9-9-9------|
F--0--0--0--0--0--0--0--0--0--0--0--0--0--0--0--0-0-0-0-0-0-0-0-0-0-0-0-0------|
C------------------------------------------------------------------------------|
G------------------------------------------------------------------------------|
C------------------------------------------------------------------------------|

D----------|
A-6-6-6-6--|
F-0-0-0-0--|  X2
C----------|
G----------|
C----------|

D------------------------------------------------------------------------------|
A-------6-6-6---------6-6-6---------6-6-6--------------------------------------|
F-------x-x-x---------x-x-x---------x-x-x--------------------------------------|
C-0-0-0-3-3-3-0-0-0-0-3-3-3-0-0-000-3-3-3-0-0----------------------------------|
G-0-0-0-------0-0-0-0-------0-0-000-------0-0----------------------------------|
C-0-0-0-------0-0-0-0-------0-0-000-------0-0-0-2-2-2-3-3-3-3------------------|

D--------------------------------------------------------------------|
A-------5-5-5---------5-5-5---------6-6-6----------------------------|
F-------x-x-x---------x-x-x---------x-x-x----------------------------|  X2
C-0-0-0-2-2-2-0-0-0-0-2-2-2-0-0-000-2-2-2-0-0------------------------|
G-0-0-0-------0-0-0-0-------0-0-000-------0-0------------------------|
C-0-0-0-------0-0-0-0-------0-0-000-------0-0-5-7-7-7-5-5-5-5--------|
Добавлено: 10.07.2012
Другие материалы по этой песне:

Страница создана 10.07.2012
http://primanota.ru/haste-the-day/porcelain-chords.htm
Привет, Гость.
Предлагаем пройти революционный курс по гитаре.
Подарок от PrimaNota.Ru, забирай!