PrimaNota.ru - самый крупный в мире бесплатный архив песенных текстов, аккордов, табулатур и нот


Haste The Day - Walk On - текст песни, таба, видео

Регистрация Запомнить меня
Войти через:  Facebook Google Twitter Vk Yandex Mail.ru

Haste The Day - Walk On - текст песни, таба, видео

Печатать
Просмотров: 152
Уроки эстрадного вокала в Санкт-Петербурге
-----------------------------------------------------------------------
                     Walk On – Haste the Day
-----------------------------------------------------------------------

Tabbed by: xXcriesinvainXx
Email: Apocalypse674@aol.com

Tuning: Drop C

I'll just separate lead and rhythm parts for you guys

D|---|
A|---|
F|---|
C|---| x14)
G|---|
C|000|
  xxx

Verse 1-pick slide before start
Lead (and those are tens not 1 and 0)
D|------------------------------------------|
A|------------------------------------------|
F|------------------------------------------|
C|--32--------32--------532---753-1087--7---|
G|----5p3h5------5p3h5-----5----------10-108|
C|0---------0-------------------------------|

Rhythm
D|---------------------------------------------------------|
A|---------------------------------------------------------|
F|---------------------------------------------------------|
C|0-32------0-32------8-------------10---------------------|
G|0---5p3h5-0---5p3h5-8-------------10---------------------|
C|0---------0---------8-888-888-888-10-101010-101010-101010|
                        xxx xxx xxx     x x x  x x x  x x x

Lead
D|------------------------------------------|
A|------------------------------------------|
F|---------------------1097--7--------------|
C|--32--------32-----------10-108------7----|
G|----5p3h5------5p3h5-------------7810-1087|
C|0---------0-------------------------------|

Rhythm
D|---------------------------------------------------------|
A|---------------------------------------------------------|
F|---------------------------------------------------------|
C|0-32------0-32------8-------------10---------------------|
G|0---5p3h5-0---5p3h5-8-------------10---------------------|
C|0---------0---------8-888-888-888-10-101010-101010-101010|
                        xxx xxx xxx     x x x  x x x  x x x

Play Verse 1 twice


Bridge (or what ever its called)

Both lead and rhythm
D|-------------------------------------------------------|
A|-------------------------------------------------------|
F|-------------------------------------------------------|
C|3p2p0--3p2p0-8p7p0-3p2p0----3p2p0-8p7p0-3p2-------3p2p0|
G|3p2p0--3p2p0-8p7p0-3p2p0----3p2p0-8p7p0-3p2-02753-3p2p0|
C|3p2p0--3p2p0-8p7p0-3p2p0----3p2p0-8p7p0-3p2-02753-3p2p0|
                                              Xxxxx

Chorus-Somehow you see me all too well…(so catchy)
D|-----------------------------------|
A|--10---10-------55-----10---10-5---|
F|--10---10-------55-----10---10-5---|
C|0-0--8-8—-10-33-55---0-0--8-8--5---|
G|0-0--8-8—-10-33-33---0-0--8-8--3---|
C|0-0--8-8--10-33------0-0--8-8------|


Verse 2

Lead
D|--------------------------------------------------|
A|--------------------------------------------------|
F|--------------------------------------------------|
C|------------------------------------------------8-|
G|--5/875—-5/875-1087-12108-10878---5/875---5/875-8-|
C|0------10-----8------------------0------10------8-|


Rhythm
D|---------------|
A|---------------|
F|---------------|
C|0-10-8---0-10-8|
G|0-10-8---0-10-8|
C|0-10-8---0-10-8|

Both
D|------------------------------------------------------|
A|------------------------------------------------------|
F|------------------------------------------------------|
C|0-------10-------8----------------------------------8-|
G|0-5/875—10-5/875-8-1087-12108-10878---5/875---5/875-8-|
C|0-------10-------8------------------0------10-------8-|

Fill before breakdown-with effect

Lead
D|-----------|
A|-----------|
F|-----------|
C|1097--7----|
G|----10-1087|
C|-----------|

Rhythm
D|---------|
A|87-------|
F|--97-9754|
C|---------|
G|---------|
C|---------|

Sorry guys but I cant really tab a breakdown its mostly
Using your ears but I know that the pinch harmonic in the
Middle of the breakdown is on the low C string fret 10 and
Its gradually bended


After the breadown you just play Verse 2 and the Chorus again and then your done! Well 
end of the song is ended on a simple…

D|-----|
A|-----|
F|-----|
C|3p2p0|
G|3p2p0|
C|3p2p0|

Email me or leave a comment if you don't think
something is right cuz I did figure this song out
in like 20 minutes so there might be some minor errors

| /  slide up
| \  slide down
| h  hammer-on
| p  pull-off
| ~  let ring
| *  harmonic
| x  Mute note
Добавлено: 05.07.2012
Другие материалы по этой песне:

Страница создана 22.03.2012
http://primanota.ru/haste-the-day/walk-on-chords.htm
Привет, Гость.
Предлагаем пройти революционный курс по гитаре.
Подарок от PrimaNota.Ru, забирай!