PrimaNota.ru - самый крупный в мире бесплатный архив песенных текстов, аккордов, табулатур и нот


Haste The Day - Needles - текст песни, таба, бас-таба, видео

Регистрация Запомнить меня
Войти через:  Facebook Google Twitter Vk Yandex Mail.ru

Haste The Day - Needles - текст песни, таба, бас-таба, видео

Печатать
Просмотров: 191
                                                  Needles (first guitar only)
By Haste the day
Tuning: C G C F A D (drop C)

PM - Palm mute
* - Pinch harmonic 
# - natural harmonic
\ - Slide down
/ - Slide up
x - Mute string
~ - Vibrato
\\\- pick slide
(2x)- play the single part again
2x- play whole line again

Intro    4x
|---------------------------------------------------------------------|
|---------------------------------------------------------------------|
|---------------------------------------------------------------------|
|---------------------------------------------------------------------|
|-----5-----5-----5---7-----7-----7---8-----8-----8---4-----4-----4---|
|-0-0---0-0---0-0---0---8-8---8-8---8---5-5---5-5---5---3-3---3-3---3-|
Pm. .   . .   . .   .   . .   . .   .   . .   . .   .   . .   . .   .

Verse
|---------------------------------------------------------------|
|---------------------------------------------------------------|
|-7777777777777-------------------------------------------------|
|-7777777777777-33333333333333-55555555555555-88888777777777777-|
|-5555555555555-33333333333333-55555555555555-88888777777777777-|
|---------------33333333333333-55555555555555-88888777777777777-|

Intro 2x

Verse 2x

Chorus 2x
|-------------------------------------------|
|-------------------------------------------|
|-------------------------------------------|
|-000000000000000000-55555555-3333333333333-|
|-000000000000000000-55555555-3333333333333-|
|-000000000000000000-55555555-3333333333333-|

Intro 2x

Verse 2x

Chorus 2x

Bridge      (9X)                        (9x)
|---------------|---------------------------|
|---------------|---------------------------|
|---------------|---------------------------|
|---------------|---------------------------|
|-0--0-----0--0-|--00000----000-0-0-0000--0-|
|-0--0-----0--0-|--00000----000-0-0-0000--0-|
Pm.  .     .  .    .....    ... . . ....  .

 Bridge 2                                         (2x)
|--------------------------------------------------|
|--------------------------------------------------|
|-7~~~~-9~-10~~--9~~~-12~~---6~~---7~--9~\6~--3--2-|
|-x-----x---x----x-----x-----x-----x---x-\x---x--x-|
|-5~~~~-7~--8~~--7~~~-10~~---4~~---5~--7~\4~--1--0-|

                                        (2x)
|------|------------------------------------------------------|
|------|------------------------------------------------------|
|------|------------------------------------------------------|
|------|------------------------------------------------------|
|-0--0-|-000004*--000-0-0-0000--0----00000----000-0-0-0000--0-|
|-0--0-|-00000----000-0-0-0000--0----00000----000-0-0-0000--0-|
Pm.  .   .....    ... . . ....  .    .....    ... . . ....  .
 
Outro - play 2nd part of bridge 6x but let notes ring during palm mutes.
End on open note palm muted & ring out.
Добавлено: 03.06.2012
Другие материалы по этой песне:

Страница создана 24.04.2012
http://primanota.ru/haste-the-day/needles-chords.htm
Привет, Гость.
Предлагаем пройти революционный курс по гитаре.
Подарок от PrimaNota.Ru, забирай!