PrimaNota.ru - самый крупный в мире бесплатный архив песенных текстов, аккордов, табулатур и нот


Gojira - Yamas Messengers - текст песни, бас-таба, видео

Регистрация Запомнить меня
Войти через:  Facebook Google Twitter Vk Yandex Mail.ru

Gojira - Yamas Messengers - текст песни, бас-таба, видео

Печатать
Просмотров: 118
Авторы музыки: Mario Duplantier, Joe Duplantier
Авторы текста: Joe Duplantier
Song: Yama's Messengers
Artist: Gojira
Album: The Way Of All Flesh
Tabbed by: Gerbs

Tuning: Drop C (C , G , C , F)


Riff 1:

|-------------------------|----------------------|----------------------|----------------------|
|-------------------------|----------------------|----------------------|----------------------|
|-------------------------|----------------------|--7----7----7----8----|----------------------|
|--10----10----10----8----|--7----3----3----3----|----------------------|--10----8----8----8---|

|-------------------------|----------------------|----------------------|----------------------|
|-------------------------|----------------------|----------------------|----------------------|
|-------------------------|----------------------|----------------------|----------------------|
|--10----10----10----8----|--7----3----3----3----|--2----2----2----2----|--2----2----0--3------|


Fill 1:

|-------------------------------------------|
|-------------------------------------------|
|-------------------------------------------|
|--0-0-0-0-0-0-0-0-0-0-0-0-0-0-0-0-0-0-3----|


Riff 2:

|----------------------------------|----------------------------------|---------------------------|
|----------------------------------|----------------------------------|---------------------------|
|----------------------------------|----------------------------------|---------------------------|
|--3--3--2--0-----3-------3--3--2--|--0-----3-------3--3--2--0-----3--|-------3--3--2--0-----3----|

|----------------------------------|----------------------------------|-------------|--------------|
|----------------------------------|----------------------------------|-------------|--------------|
|----------------------------------|----------------------------------|-------------|--------------|
|--3--3--2--0-----3-------3--3--2--|--0-----3-------3--3--2--0-----3--|3----3----3--|-3----3-3-3-3-|


Riff 3:


var. 1:

|---------------------------------------|--------------------------------------|
|---------------------------------------|--------------------------------------|
|---------------------------------------|--------------------------------------|
|--0--0--0--0--0--0--0--0--0--0-0-0--0--|--0--1--0--1--0--0--0--1--0--1--0--1--|


var. 2:

|---------------------------------------|--------------------------------------|
|---------------------------------------|--------------------------------------|
|---------------------------------------|--------------------------------------|
|--1--0--0--0--0--0--0--0--0--0-0-0--0--|--0--1--0--1--0--0--0--1--0--1--0--1--|


Fill 2:

|-----------------|
|-----------------|
|-----------------|
|3----------------|


Riff 4:

|----------------------------------|----------------------------------|
|----------------------------------|----------------------------------|
|----------------------------------|----------------------------------|
|--3--3--2--0-----3-------3--3--2--|--0-----3-------3--0--0--3--2--0--|

|----------------------------------|----------------------------------|
|----------------------------------|----------------------------------|
|----------------------------------|----------------------------------|
|--3--3--2--0-----3-------3--3--2--|--0-----3-------3--0--0--3--2--0--|

|----------------------------------|----------------------------------|
|----------------------------------|----------------------------------|
|----------------------------------|----------------------------------|
|--3--3--2--0-----3-------3--3--2--|--0-----3-------3--0--0--3--2--0--|

|----------------------------------|--------------------------------|
|----------------------------------|--------------------------------|
|----------------------------------|--------------------------------|
|--3--3--2--0-----3-------3--3--2--|--0-----3-------3--0----0----0--|

|-----------------------------------|
|-----------------------------------|
|-----------------------------------|
|--0--2----2----2--3----------------|


Fill 3:
|---------------------------------|------------------------------|---------------------|
|---------------------------------|------------------------------|---------------------|
|---------------------------------|------------------------------|---------------------|
|--3--3--2--0------------3--3--2--|--0------------3----3----3----|--0------------------|


Riff 3:

var. 3:

|---------------------------------------|--------------------------------------|
|---------------------------------------|--------------------------------------|
|---------------------------------------|--------------------------------------|
|--2--2--2--2--2--2--2--2--2--2-2-2--2--|--2--3--2--3--2--2--2--3--2--3--2--3--|


var. 4:

|---------------------------------------|--------------------------------------|
|---------------------------------------|--------------------------------------|
|---------------------------------------|--------------------------------------|
|--3--2--2--2--2--2--2--2--2--2-2-2--2--|--2--3--2--3--2--2--2--3--2--3--2--3--|


End:

|---------------------------------------|
|---------------------------------------|
|---------------------------------------|
|--3--2--2--2--2--2--2--2--2--2-2-2-----|



Order of song:

Riff 1  x  4
Fill 1  x  1
Riff 2  x  2
Riff 1  x  2
Riff 2  x  2
Riff 3 var. 1  x  1
Riff 3 var. 2  x  3
Fill 2  x  1
Riff 4  x  1
Riff 1  x  2
Fill 3  x  1
Riff 3 var. 1  x  1
Riff 3 var. 2  x  3
Fill 2  x  1
Riff 3 var. 3  x  1
Riff 3 var. 4  x  3
End  x  1
Добавлено: 29.07.2012
Другие материалы по этой песне:

Страница создана 28.04.2012
http://primanota.ru/gojira/yamas-messengers-chords.htm
Привет, Гость.
Предлагаем пройти революционный курс по гитаре.
Подарок от PrimaNota.Ru, забирай!