PrimaNota.ru - самый крупный в мире бесплатный архив песенных текстов, аккордов, табулатур и нот


Gojira - Wisdom Comes - текст песни, таба, видео

Регистрация Запомнить меня
Войти через:  Facebook Google Twitter Vk Yandex Mail.ru

Gojira - Wisdom Comes - текст песни, таба, видео

Печатать
Просмотров: 108
Author/Artist: Gojira
Title: Wisdom Comes
Album: The Link
Transcribed by: Jaymz88
DGCFAD

----------------------------------------------------------------------------|
----------------------------------------------------------------------------|
----------------------------------------------------------------------------|
----------------------------------------------------------------------------|
--3-3-3-3-2-2-2-2-3-3-3-3-1-1-1-1--3-3-3-3-3-2-2-2-2-3-3-3-3-1-1-1-1--------|
--3-3-3-3-2-2-2-2-3-3-3-3-1-1-1-1--3-3-3-3-3-2-2-2-2-3-3-3-3-1-1-1-1--------|
 PM - - - - - - - - - - - - - - -  - - - - - - - - - - - - - - - - -

-----------------------------------------------------------------------------|
-----------------------------------------------------------------------------|
-----------------------------------------------------------------------------|
-----------------------------------------------------------------------------|
-3-1--1-2-1--1-3-1--1-2-1--1-3-1--1-2-1--1-3-1--1-2-1------3-1--1-2-1--1-3-1-|
-3-1--1-2-1--1-3-1--1-2-1--1-3-1--1-2-1--1-3-1--1-2-1--3b--3-1--1-2-1--1-3-1-|
 - -  - - -  - - -  - - -  - - -  - - -  - - -  - - - A.H  - -  - - -  - -

----------------------------------------------------------------------------|
----------------------------------------------------------------------------|
----------------------------------------------------------------------------|
----------------------------------------------------------------------------|
-1-2-1--1-3-1--1-2-1--1-3-1--1-2-1------------------------------------------|
-1-2-1--1-3-1--1-2-1--1-3-1--1-2-1--3b--------------------------------------|
 - - -  - - -  - - -  - - -  - - - A.H

----------------------------------------------------------------------------|
----------------------------------------------------------------------------|
----------------------------------------------------------------------------|
----------------------------------------------------------------------------|
--3-3-3-3-2-2-2-2-3-3-3-3-1-1-1-1--3-3-3-3-3-2-2-2-2-3-3-3-3-1-1-1-1--------|
--3-3-3-3-2-2-2-2-3-3-3-3-1-1-1-1--3-3-3-3-3-2-2-2-2-3-3-3-3-1-1-1-1--------|
 PM - - - - - - - - - - - - - - -  - - - - - - - - - - - - - - - - -

-----------------------------------------------------------------------------|
-----------------------------------------------------------------------------|
-----------------------------------------------------------------------------|
-----------------------------------------------------------------------------|
-3-1--1-2-1--1-3-1--1-2-1--1-3-1--1-2-1--1-3-1--1-2-1------3-1--1-2-1--1-3-1-|
-3-1--1-2-1--1-3-1--1-2-1--1-3-1--1-2-1--1-3-1--1-2-1--3b--3-1--1-2-1--1-3-1-|
 - -  - - -  - - -  - - -  - - -  - - -  - - -  - - - A.H  - -  - - -  - - -

----------------------------------------------------------------------------|
----------------------------------------------------------------------------|
----------------------------------------------------------------------------|
----------------------------------------------------------------------------|
-1-2-1--1-3-1--1-2-1--1-3-1--1-2-1------------------------------------------|
-1-2-1--1-3-1--1-2-1--1-3-1--1-2-1------------------------------------------|
 - - -  - - -  - - -  - - -  - - -


-----------------------------------------------------------------------------|
-----------------------------------------------------------------------------|
--15-15-15--14-14-14---------------------------------------------------------|
---------------------13-13-13--15-15-15--14-14-14--13-13-13--14-14-14--13-13-|
-----------------------------------------------------------------------------|
-----------------------------------------------------------------------------|


----------------------------------------------------------------------------|
----------------------------------------------------------------------------|
----------------------------------------------------------------------------|
---4/3--------------------------------4/3-----------------------------------|
---2/1--4-3-4-3--4-3-4-3-4-3--4-3-4---2/1-----------------------------------|
-0------2-1-2-1--2-1-2-1-2-1--2-1-2-----------------------------------------|
 -      - - - -  - - - - - -  - - -


-----------------------------------------------------------------------------|
-----------------------------------------------------------------------------|
--15-15-15--14-14-14---------------------------------------------------------|
---------------------13-13-13--15-15-15--14-14-14--13-13-13--14-14-14--13-13-|
-----------------------------------------------------------------------------|
-----------------------------------------------------------------------------|


----------------------------------------------------------------------------|
----------------------------------------------------------------------------|
----------------------------------------------------------------------------|
---4/3--------------------------------4/3-----------------------------------|
---2/1--4-3-4-3--4-3-4-3-4-3--4-3-4---2/1-----------------------------------|
-0------2-1-2-1--2-1-2-1-2-1--2-1-2-----------------------------------------|
 -      - - - -  - - - - - -  - - -

----------------------------------------------------------------------------|
----------------------------------------------------------------------------|
----------------------------------------------------------------------------|
----------------------------------------------------------------------------|
--3-3-3-3-2-2-2-2-3-3-3-3-1-1-1-1--3-3-3-3-3-2-2-2-2-3-3-3-3-1-1-1-1--------|
--3-3-3-3-2-2-2-2-3-3-3-3-1-1-1-1--3-3-3-3-3-2-2-2-2-3-3-3-3-1-1-1-1--------|
 PM - - - - - - - - - - - - - - -  - - - - - - - - - - - - - - - - -

-----------------------------------------------------------------------------|
-----------------------------------------------------------------------------|
-----------------------------------------------------------------------------|
-----------------------------------------------------------------------------|
-3-1--1-2-1--1-3-1--1-2-1--1-3-1--1-2-1--1-3-1--1-2-1------3-1--1-2-1--1-3-1-|
-3-1--1-2-1--1-3-1--1-2-1--1-3-1--1-2-1--1-3-1--1-2-1--3b--3-1--1-2-1--1-3-1-|
 - -  - - -  - - -  - - -  - - -  - - -  - - -  - - - A.H  - -  - - -  - - -

----------------------------------------------------------------------------|
----------------------------------------------------------------------------|
----------------------------------------------------------------------------|
----------------------------------------------------------------------------|
-1-2-1--1-3-1--1-2-1--1-3-1--1-2-1------------------------------------------|
-1-2-1--1-3-1--1-2-1--1-3-1--1-2-1------------------------------------------|
 - - -  - - -  - - -  - - -  - - -
Добавлено: 08.03.2012
Другие материалы по этой песне:

Страница создана 05.03.2012
http://primanota.ru/gojira/wisdom-comes-chords.htm
Привет, Гость.
Предлагаем пройти революционный курс по гитаре.
Подарок от PrimaNota.Ru, забирай!