PrimaNota.ru - самый крупный в мире бесплатный архив песенных текстов, аккордов, табулатур и нот


Gojira - Embrace The World - текст песни, таба, видео

Регистрация Запомнить меня
Войти через:  Facebook Google Twitter Vk Yandex Mail.ru

Gojira - Embrace The World - текст песни, таба, видео

Печатать
Просмотров: 102
Author/Artist: Gojira
Title: Embrace The World
Album: The Link
Transcribed by: Jaymz88
DGCFAD


-----------------------------------------------------------------------------|
-----------------------------------------------------------------------------|
-12121212121212121212-11111111111111111111-----------------------------------|
--x-x-x-x-x-x-x-x-x-x--x-x-x-x-x-x-x-x-x-x-----------------------------------|
-10101010101010101010--9-9-9-9-9-9-9-9-9-9-----------------------------------|
-------------------------------------------11-11-11-11-11-11-12-12-12-12-----|

--------------------|---------------------------------------------------------|
--------------------|---------------------------------------------------------|
--------------------|--121212121212121212-11111111111111----------------------|
-22222222222222---x2|---x-x-x-x-x-x-x-x-x--x-x-x-x-x-x-x----------------------|
-22222222222222-----|--101010101010101010--9-9-9-9-9-9-9----------------------|
-00000000000000-----|------------------------------------11-11-11-11-11-11-11-|
PM----------------------------------------------------------------------------|
-------------------------0----|-------------------------0---------------------|
-------------------------0----|-------------------------0---------------------|
-------------------------0----|-------------------------0---------------------|
--------------4-------3-------|----------5--------4--3-------------5----------|
--------------2-------2-------|----------3--------2--1-------------3----------|
-12-12-12-12--2-0-0-0-1-------|--0-1-2-3-3--0-1-2-2--1-----0-1-2-3-3--0-1-2---|
                PM---          PM-------    -----    -     -------    --------|

------0------------------------0------------------------------|--------------|
------0------------------------0------------------------------|--------------|
------0------------------------0------------------------------|--------------|
-4--3------------5--------4--3------------5-------------------|--------------|
-2--1------------3--------2--1------------3-------------------|--------------|
-2--1----0-1-2-3-3--0-1-2-2--1----0-1-2-3-3--0-1-2-3-2-1-2-3--|--------------|
    -    -------    -----    -    -------    ---------------

-----------------------------------------------------------------------------|
-----------------------------------------------------------------------------|
-----------------------------------------------------------------------------|
----3---3-3-----3-3-----3---3-3-----3-3-----3---3-3-----3-3----3---3-3-----3-|
----x---x-x-----x-x-----x---x-x-----x-x-----x---x-x-----x-x----x---x-x-----x-|
--0-1-0-1-1-0-0-1-1---0-1-0-1-1-0-0-1-1---0-1-0-1-1-0-0-1-1--0-1-0-1-1-0-0-1-|
 PM   -     ---       -   -     ---       -   -     ---      -   -     ---

-----------------------------------------------------------------------------|
-----------------------------------------------------------------------------|
-----------------------------------------------------------------------------|
-3-----3-3-----3-3-----3----3---3-3-----3-3-----3---3-3-----3-3----------3---|
-x-----x-x-----x-x-----x----x---x-x-----x-x-----x---x-x-----x-x----------x---|
-1-0-0-1-1-0-0-1-1-0-0-1--0-1-0-1-1-0-0-1-1---0-1-0-1-1-0-0-1-1--0-0-0-0-1-0-|
   ---     ---     ---    -   -     ---       -   -     ---      --------  -

----------------------------|-------------------------------------------------|
----------------------------|-------------------------------------------------|
----------------------------|-------------------------------------------------|
--3-3---3---3-3-3-----3-3---|-------------------------------------------------|
--x-x---x---x-x-x-0-1-x-x---|--0-2-2/3-1------------------0-2-2/3-1-----------|
--1-1-0-1-0-1-1-1-0-1-1-1---|--0-2-2/3-1--0-0-0-0-0-0-0-0-0-2-2/3-1--0-0-0-0--|
      -   -       ---        PM---       PM------------------        ---------|

------------------------------------------------------------------------------|
------------------------------------------------------------------------------|
------------------------------------------------------------------------------|
-----x/-----------------------------------------------------------------------|
-----x/-0-2-2/3-1------------------0-2-2/3-1------------------0-2-2/-3-1------|
-0-0----0-2-2/3-1--0-0-0-0-0-0-0-0-0-2-2/3-1--0-0-0-0-0-0-0-0-0-2-2/-3-1--0-0-|
 --     ---        -------------------        -------------------         ---

--------------|---------------------------------------------------------------|
--------------|---------------------------------------------------------------|
--------------|-12121212121212121212-111111111111111111-----------------------|
--------------|--x-x-x-x-x-x-x-x-x-x--x-x-x-x-x-x-x-x-x-----------------------|
--------------|-10101010101010101010--9-9-9-9-9-9-9-9-9-----------------------|
--0-0-0-0-0-0-|------------------------------------------11-11-11-11-11-11----|
  ----------------------------------------------------------------------------|

------------------------------------------------------------------------------|
------------------------------------------------------------------------------|
-------------------------------------12121212121212121212111111111111111111---|
----------------x3---22222222222222---x-x-x-x-x-x-x-x-x-x-x-x-x-x-x-x-x-x-x---|
---------------------22222222222222--10101010101010101010-9-9-9-9-9-9-9-9-9---|
-11-12-12-12-12------00000000000000-------------------------------------------|
                     ---------------------------------------------------------|

------------------------------------------------------------------------------|
------------------------------------------------------------------------------|
------------------------------------------------------------------------------|
---------------------------------------4-------4--4/3-3-3-3--6--7--4-------4--|
---------------------------------x3----x-------x--x/x-x-x-x--x--x--x-------x--|
--11-11-11-11-11-11-12-12-12-12--------2-0-0-0-2--2/1-1-1-1--4--5--2-0-0-0-2--|
                                         -----                       ---------|

--------------------0-------------------------------------0-------------------|
--------------------0-------------------------------------0-------------------|
--------------------0-------------------------------------0-------------------|
-4-3-3-3-3--6--7--------------------------------------------------------------|
-x-x-x-x-x--x--x--0-----222222222222222222222222222-0-2-3---22222222222222222-|
-2/1-1-1-1--4--5--0-----222222222222222222222222222-0-2-3---22222222222222222-|
                  -   PM---------------------------------   ------------------|

----------|----------------------------------------|--------------------------|
----------|----------------------------------------|--------------------------|
----------|----------------------------------------|--------------------------|
----------|----------------------------------------|--------------------3---3-|
-222222---|--0-2-2/3-1------------------0-2-2/3-1--|--------------------x---x-|
-222222---|--0-2-2/3-1--0-0-0-0-0-0-0-0-0-2-2/3-1--|--0-0-0-0-0-0-0-0-0-1-0-1-|
 ------      ---        -------------------           -----------------   -

------------------------------------------------------------------------------|
------------------------------------------------------------------------------|
------------------------------------------------------------------------------|
--3-----3-3---------3---3-3---3-3-3-------------------------------------------|
--x-----x-x---------x---x-x---x-x-x-------------------------------------------|
--1-0-0-1-1-0-0-0-0-1-0-1-1-0-1-1-1-------------------------------------------|
    ---     -------   -     --------------------------------------------------|
Добавлено: 03.03.2012
Другие материалы по этой песне:

Страница создана 03.03.2012
http://primanota.ru/gojira/embrace-the-world-chords.htm
Привет, Гость.
Предлагаем пройти революционный курс по гитаре.
Подарок от PrimaNota.Ru, забирай!