PrimaNota.ru - самый крупный в мире бесплатный архив песенных текстов, аккордов, табулатур и нот


Gojira - The Way Of All Flesh - текст песни, таба, видео

Регистрация Запомнить меня
Войти через:  Facebook Google Twitter Vk Yandex Mail.ru

Gojira - The Way Of All Flesh - текст песни, таба, видео

Печатать
Просмотров: 151
Авторы музыки: Mario Duplantier, Joe Duplantier
Авторы текста: Joe Duplantier
Author/Artist: Gojira
Title: The Way Of All Flesh
Album: The Way Of All Flesh
Transcribed by: Jaymz88
Tunning : CGCD#GC (between drop C and C standard)


-||--------------------------------------------------3------------------------|
-||--------------------------------------------------3------x3----------------|
-||--------------------------------------------------3------------------------|
-||--------------------------------------------------3------------------------|
-||-0-0-0--1-1-1--2-2-2--0-0-0--3-3-3--2-2-2--1-1-1--3------------------------|
-||-0-0-0--1-1-1--2-2-2--0-0-0--3-3-3--2-2-2--1-1-1--3------------------------|
    - - -  - - -  - - -  - - -  - - -  - - -  - - -

---------------------------------------------------------|--------------------|
---------------------------------------------------------|--------------------|
---------------------------------------------------------|--------------------|
---------------------------------------------------------|--------------------|
--0-0-0--1-1-1--2-2-2--0-0-0----3v-----------------------|--------------------|
--0-0-0--1-1-1--2-2-2--0-0-0-----------------------------|--------------------|
  - - -  - - -  - - -  - - -   A.H


-||--------------------------------------------------3------------------------|
-||--------------------------------------------------3------x3----------------|
-||--------------------------------------------------3------------------------|
-||--------------------------------------------------3------------------------|
-||-0-0-0--1-1-1--2-2-2--0-0-0--3-3-3--2-2-2--1-1-1--3------------------------|
-||-0-0-0--1-1-1--2-2-2--0-0-0--3-3-3--2-2-2--1-1-1--3------------------------|
    - - -  - - -  - - -  - - -  - - -  - - -  - - -

-----------------------------------------||----------------------------------|
-----------------------------------------||----------------------------------|
-----------------------------------------||----------------------------------|
-----------------------------------------||----------------------------------|
--0-0-0--1-1-1--2-2-2--0-0-0-------------||----------------------------------|
--0-0-0--1-1-1--2-2-2--0-0-0----3v-------||----------------------------------|
  - - -  - - -  - - -  - - -   A.H


-||--------------------------------------------------3------------------------|
-||--------------------------------------------------3------x8----------------|
-||--------------------------------------------------3------------------------|
-||--------------------------------------------------3------------------------|
-||-0-0-0--1-1-1--2-2-2--0-0-0--3-3-3--2-2-2--1-1-1--3------------------------|
-||-0-0-0--1-1-1--2-2-2--0-0-0--3-3-3--2-2-2--1-1-1--3------------------------|
    - - -  - - -  - - -  - - -  - - -  - - -  - - -

-||--------------------------------------------------------------------------|
-||--------------------------------------------------------------------------|
-||--------------------------------------------------------------------------|
-||--------------------------------------------------------------------------|
-||--------------------------------------------------------------------------|
-||0-1-2-0-3-2-1-3-0-1-2-0-3-2-1-3-0-1-2-0-3-2-1-3-0-1-2-0-3-3-3-3-3-3-3-3-3-|
   - - - - - - - - - - - - - - - - - - - - - - - - - - - -


-||--------------------------------------------------3------------------------|
-||--------------------------------------------------3------x4----------------|
-||--------------------------------------------------3------------------------|
-||--------------------------------------------------3------------------------|
-||-0-0-0--1-1-1--2-2-2--0-0-0--3-3-3--2-2-2--1-1-1--3------------------------|
-||-0-0-0--1-1-1--2-2-2--0-0-0--3-3-3--2-2-2--1-1-1--3------------------------|
    - - -  - - -  - - -  - - -  - - -  - - -  - - -

Guitar I
-||---------------------------------------------------------------------------|
-||---------------------------------------------------------------------------|
-||---------------------------------------------------------------------------|
-||---------------------------------------------------------------------------|
-||---------------------------------------------------------------------------|
-||-5p3-5p3-5p3-5p3-5p3-5p3-5p3-5p3-5p3-5p3-5p3-5p3-5p3-5p3-5p3-5p3-5p2-5p2---|


-------------------------------------------------------------|----------------|
-------------------------------------------------------------|----------------|
-------------------------------------------------------------|----------------|
-------------------------------------------------------------|----------------|
-------------------------------------------------------------|----------------|
---5p2-5p2-5p2-5p2-5p2-5p2-5p2-5p2-5p2-5p2-5p2-5p2-5p2-5p2---|----------------|

Guitar II
-||-----------------------------------||--------------------------------------|
-||-----------------------------------||--------------------------------------|
-||-----------------------------------||--------------------------------------|
-||--3--------3---5---7---5---2-------||--------------------------------------|
-||--3--------3---5---7---5---2-------||--------------------------------------|
-||--3--------3---5---7---5---2-------||--------------------------------------|

-||--------------------------------------------------------------------------|
-||--------------------------------------------------------------------------|
-||--------------------------------------------------------------------------|
-||--------------------------------------------------------------------------|
-||--------------------------------------------------------------------------|
-||0-1-2-0-3-2-1-3-0-1-2-0-3-2-1-3-0-1-2-0-3-2-1-3-0-1-2-0-3-3-3-3-3-3-3-3-3-|
   - - - - - - - - - - - - - - - - - - - - - - - - - - - -

------------------------------------||----------------------------------------|
------------------------------------||----------------------------------------|
------------------------------------||----------------------------------------|
------------------------------------||----------------------------------------|
------------------------------------||----------------------------------------|
--3---3---3---3---3---3-------------||----------------------------------------|


-||---------------------------------------------------------------------------|
-||---------------------------------------------------------------------------|
-||----------------------------------------------------------------------2--3-|
-||----------------------------------------------------------------------2--3-|
-||0--2--3--0--3--3--3--2--2--2--2--2--2--2--2--2---0--2--3--0--3--3--3-------|
-||0--2--3--0--3--3--3--2--2--2--2--2--2--2--2--2---0--2--3--0--3--3--3-------|
   -  -  -  -  -  -  -  -  -  -  -  -  -  -  -  -   -  -  -  -  -  -  -  -  -

-------------------------|----------------------------------------------------|
-------------------------|----------------------------------------------------|
--5--3--2--3--2--0--2----|----------------------------------------------------|
--5--3--2--3--2--0--2----|----------------------------------------------------|
-------------------------|----------------------------------------------------|
-------------------------|----------------------------------------------------|
  -  -  -  -  -  -  -

-||----------------------------------------------------|----------------------|
-||----------------------------------------------------|---x3-----------------|
-||----------------------------------------------------|----------------------|
-||----------------------------------------------------|----------------------|
-||--0--2--3--0--3--3--3--2--2--2--2--2--2--2--2--2----|----------------------|
-||--0--2--3--0--3--3--3--2--2--2--2--2--2--2--2--2----|----------------------|
     -  -  -  -  -  -  -  -  -  -  -  -  -  -  -  -

----------------------------------------------------||-------------------------|
----------------------------------------------------||-x2----------------------|
-----------------------2--3--5--3--2--3--2--0--2----||-------------------------|
-----------------------2--3--5--3--2--3--2--0--2----||-------------------------|
--0--2--3--0--3--3--3-------------------------------||-------------------------|
--0--2--3--0--3--3--3-------------------------------||-------------------------|
  -  -  -  -  -  -  -  -  -  -  -  -  -  -  -  -


-||----------------------------------------------------|------------------------|
-||----------------------------------------------------|-x3---------------------|
-||----------------------------------------------------|------------------------|
-||----------------------------------------------------|------------------------|
-||--0--2--3--0--3--3--3--2--2--2--2--2--2--2--2--2----|------------------------|
-||--0--2--3--0--3--3--3--2--2--2--2--2--2--2--2--2----|------------------------|
     -  -  -  -  -  -  -  -  -  -  -  -  -  -  -  -


---------------------------------------------------||-------------------------|
---------------------------------------------------||-------------------------|
---------------------------------------------------||-------------------------|
---------------------------------------------------||-------------------------|
--0--1--2--0--3----2--2--2--2--2--2--2--2--2--2----||-------------------------|
--0--1--2--0--3----2--2--2--2--2--2--2--2--2--2----||-------------------------|
  -  -  -  -       -  -  -  -  -  -  -  -  -  -


-||---------------------------------0-----------0--------||-------------------|
-||---------------------------------0-----------0--------||-x2----------------|
-||---------------------------------0-----------0--------||-------------------|
-||--3------3------3------3--3--5---------0----------0-0-||-------------------|
-||--3------3------3------3--3--5---------0----------0-0-||-------------------|
-||--3------3------3------3--3--5---------0----------0-0-||-------------------|


-||----------------------------------------------------|----------------------|
-||----------------------------------------------------|---x3-----------------|
-||----------------------------------------------------|----------------------|
-||----------------------------------------------------|----------------------|
-||--0--2--3--0--3--3--3--2--2--2--2--2--2--2--2--2----|----------------------|
-||--0--2--3--0--3--3--3--2--2--2--2--2--2--2--2--2----|----------------------|
     -  -  -  -  -  -  -  -  -  -  -  -  -  -  -  -

----------------------------------------------------||-------------------------|
----------------------------------------------------||-------------------------|
-----------------------2--3--5--3--2--3--2--0--2----||-------------------------|
-----------------------2--3--5--3--2--3--2--0--2----||-------------------------|
--0--2--3--0--3--3--3-------------------------------||-------------------------|
--0--2--3--0--3--3--3-------------------------------||-------------------------|
  -  -  -  -  -  -  -  -  -  -  -  -  -  -  -  -


-||----------------------------------------------------|------------------------|
-||----------------------------------------------------|-x3---------------------|
-||----------------------------------------------------|------------------------|
-||----------------------------------------------------|------------------------|
-||--0--2--3--0--3--3--3--2--2--2--2--2--2--2--2--2----|------------------------|
-||--0--2--3--0--3--3--3--2--2--2--2--2--2--2--2--2----|------------------------|
     -  -  -  -  -  -  -  -  -  -  -  -  -  -  -  -


---------------------------------------------------||-------------------------|
---------------------------------------------------||-------------------------|
---------------------------------------------------||-------------------------|
---------------------------------------------------||-------------------------|
--0--1--2--0--3----2--2--2--2--2--2--2--2--2--2----||-------------------------|
--0--1--2--0--3----2--2--2--2--2--2--2--2--2--2----||-------------------------|
  -  -  -  -       -  -  -  -  -  -  -  -  -  -

Guitar II
-||-----------------------------------||--------------------------------------|
-||-----------------------------------||--------------------------------------|
-||-----------------------------------||-x2-----------------------------------|
-||--3--------3---5---7---5---2-------||--------------------------------------|
-||--3--------3---5---7---5---2-------||--------------------------------------|
-||--3--------3---5---7---5---2-------||--------------------------------------|

Guitar I
-||---------------------------------------------------------------------------|
-||---------------------------------------------------------------------------|
-||---------------------------------------------------------------------------|
-||---------------------------------------------------------------------------|
-||---------------------------------------------------------------------------|
-||-5p3-5p3-5p3-5p3-5p3-5p3-5p3-5p3-5p3-5p3-5p3-5p3-5p3-5p3-5p3-5p3-5p2-5p2---|


-------------------------------------------------------------|----------------|
-------------------------------------------------------------|----------------|
-------------------------------------------------------------|----------------|
-------------------------------------------------------------|----------------|
-------------------------------------------------------------|----------------|
---5p2-5p2-5p2-5p2-5p2-5p2-5p2-5p2-5p2-5p2-5p2-5p2-5p2-5p2---|----------------|


Guitar I
-|----------------------------------------------------------------------------|
-|----------------------------------------------------------------------------|
-|----------------------------------------------------------------------------|
-|----------------------------------------------------------------------------|
-|20p8-20p8-20p8-20p8-20p8-20p8-20p8-20p8-20p12-20p12-20p12-20p12-20p12-20p12-|
-|----------------------------------------------------------------------------|


------------------------------------------------------------------------------|
------------------------------------------------------------------------------|
------------------------------------------------------------------------------|
------------------------------------------------------------------------------|
-20p12-20p12-22p14-22p14-22p14-22p14-22p14-22p14-22p14-22p14-22p7-22p7-22p7---|
------------------------------------------------------------------------------|


---------------------------|--------------------------------------------------|
---------------------------|--------------------------------------------------|
---------------------------|--------------------------------------------------|
---------------------------|--------------------------------------------------|
-22p7-22p7-22p7-22p7-22p7--|--------------------------------------------------|
---------------------------|--------------------------------------------------|

Guitar II
-|----------------------------------------------------------------------------|
-|----------------------------------------------------------------------------|
-|----------------------------------------------------------------------------|
-|----------------------------------------------------------------------------|
-|----------------------------------------------------------------------------|
-|15p3-15p3-15p3-15p3-15p3-15p3-15p3-15p3-15p7-15p7-15p7-15p7-15p7-15p7-15p7--|


------------------------------------------------------------------------------|
------------------------------------------------------------------------------|
------------------------------------------------------------------------------|
------------------------------------------------------------------------------|
------------------------------------------------------------------------------|
-15p7-17p9-17p9-17p9-17p9-17p9-17p9-17p9-17p9-17p9-17p2-17p2-17p2-17p2-17p2---|


------------------||----------------------------------------------------------|
------------------||----------------------------------------------------------|
------------------||----------------------------------------------------------|
------------------||----------------------------------------------------------|
------------------||----------------------------------------------------------|
-17p2-17p2-17p2---||----------------------------------------------------------|


-||-----------------------------------||--------------------------------------|
-||-----------------------------------||--------------------------------------|
-||-----------------------------------||--x2----------------------------------|
-||--3--------3---5---7---5---2-------||--------------------------------------|
-||--3--------3---5---7---5---2-------||--------------------------------------|
-||--3--------3---5---7---5---2-------||--------------------------------------|
Добавлено: 13.03.2012
Другие материалы по этой песне:

Страница создана 13.03.2012
http://primanota.ru/gojira/the-way-of-all-flesh-chords.htm
Привет, Гость.
Предлагаем пройти революционный курс по гитаре.
Подарок от PrimaNota.Ru, забирай!