PrimaNota.ru - самый крупный в мире бесплатный архив песенных текстов, аккордов, табулатур и нот


Gojira - The Silver Cord - таба, видео

Регистрация Запомнить меня
Войти через:  Facebook Google Twitter Vk Yandex Mail.ru

Gojira - The Silver Cord - таба, видео

Печатать
Просмотров: 135
Авторы музыки: Mario Duplantier, Joe Duplantier
Авторы текста: Joe Duplantier
Author/Artist: Gojira
Title: The Silver Cord
Album: The Way Of All Flesh
Transcribed by: Jaymz88
DGCFAD

------------------------------------------------------------------------------|
------------------------------------------------------------------------------|
------------------------------------------------------------------------------|
---------0------------0-----------0-------------------------0--------------0--|
------5------------------------1-----1-------1----------0-------0-------0-----|
--5h6-------6--5h6h8------3--------------3-------3---1--------------1---------|


------------------------------------------------------------------------------|
------------------------------------------------------------------------------|
------------------------------------------------------------------------------|
-----------------0-------------0-----------0-----------------------0----------|
-----0--------5-------------------------1-----1------1----------0-----0-------|
--1------5h6---------6--5h6h8------3--------------3------3---1-----------1----|


---------------------|--------------------------------------------------------|
---------------------|--------------------------------------------------------|
---------------------|--------------------------------------------------------|
--------------5------|--------------------------------------------------------|
--8---8----8-----8---|--------------------------------------------------------|
---------------------|--------------------------------------------------------|


-----------------------------------------||-----------------------------------|
-----------------------------------------||-----------------------------------|
----------------------------0------------||-----------------------------------|
----------0------------0----0------------||-----------------------------------|
-------5--------------------1------------||-----------------------------------|
--5h6--------6--5h6h8-------3------------||-----------------------------------|
Добавлено: 22.03.2012
Другие материалы по этой песне:

Страница создана 22.03.2012
http://primanota.ru/gojira/the-silver-cord-chords.htm
Привет, Гость.
Предлагаем пройти революционный курс по гитаре.
Подарок от PrimaNota.Ru, забирай!