PrimaNota.ru - самый крупный в мире бесплатный архив песенных текстов, аккордов, табулатур и нот


Explosions In The Sky - Its Natural To Be Afraid - таба, видео

Регистрация Запомнить меня
Войти через:  Facebook Google Twitter Vk Yandex Mail.ru

Explosions In The Sky - Its Natural To Be Afraid - таба, видео

Печатать
Просмотров: 179
-------------------------------------------------------------------------------
                             It's Natural to Be Afraid - Explosions in the Sky
-------------------------------------------------------------------------------
Tabbed by: Mike V
Email: edarotagv335@yahoo.com

Tuning: standard
| /  slide up
| \  slide down
| h  hammer-on
| p  pull-off
| ~  hold note/let ring
| !  strum as many times needed

This song is very layered and hard for me to get every detail, but here's most of it. :)

e|----------------------------------------------------------------------------|
B|-----17-18---21---20--20--20----------------15-17---18---15--15--15---------|
G|---17-----17----17--17--17--17(repeat3x)--15-----15---15---15--15--15-(2x)--|
D|----------------------------------------------------------------------------|
A|----------------------------------------------------------------------------|
E|----------------------------------------------------------------------------|
Sometimes the intro is played by hammering 18h20 on the B, so mess around w/those notes

[4:12]
e|-----3-0---3-0---3-0-------------------------------------------------------|
B|---------1-----1-----1-----------------------------------------------------|
G|---0-----------------------------------------------------------------------|
D|--2------------------------------------------------------------------------|
A|-3-------------------------------------------------------------------------|
E|---------------------------------------------------------------------------|

Slight Delay
e|---------------------------------------------------------------------------|
B|---------------------------------------------------------------------------|
G|--12~--/9~/10~------12~--/9~/5~--------------------------------------------|
D|---------------------------------------------------------------------------|
A|---------------------------------------------------------------------------|
E|---------------------------------------------------------------------------|

A little filler - hear song for timing
    [4:45]                            [5:10]
e|--------------------------------------------------------------------------|
B|--------------------------------------------------------------------------|
G|---12(repeat a bunch)---5(repeat)---12(x?)--10(x?)------------------------|
D|--------------------------------------------------12/14-14~---------------|
A|--------------------------------------------------------------------------|
E|--------------------------------------------------------------------------|

this part's iffy, but sounds decent [5:10]
e|---------------------------------------------------------------------------|
B|---------------------------------------------------------------------------|
G|---12----10---12--7/9-9-999999---5------/7--7--5--7/9----------------------|
D|---14----12---14-----------------7-(x10)/9--9--7--9/10---------------------|
A|---------------------------------------------------------------------------|
E|---------------------------------------------------------------------------|

[5:45]                             [6:04]                    last time
e|---------------------------------------------------------|---------------|
B|----------17~--------15~----------20(x12)-18(x12)-17(x24)|---------------|
G|---17(x8)----17(x5)--------------------------------------|---17(x24)-----|
D|---------------------------------------------------------|---------------|
A|---------------------------------------------------------|---------------|
E|---------------------------------------------------------|---------------|

[6:25]                                         every few times
e|-------------------------------------------|------------------------------|
B|---------------------------------------17--|---17(x12)-15(x12)------------|
G|--12/16--17-17-17-17---12/16--17-17-17-----|------------------------------|
D|-------------------------------------------|------------------------------|
A|-------------------------------------------|------------------------------|
E|--------------------------------------------------------------------------|

[7:02] *check for timing                     [7:20]
e|--------------------------20--19-17h19--|-20-19-17h19-15--20-19-17h19-12-----|
B|--17--18--20-18-17h18-17----------------|--------------------------------12~-|
G|----------------------------------------|------------------------------------|
D|----------------------------------------|------------------------------------|
A|----------------------------------------|------------------------------------|
E|----------------------------------------|------------------------------------|

[7:58]
e|--15(x7)-13-12h13----------------------------------------------------------|
B|------------------13(x7)-12-10/--------------------------------------------|
G|---------------------------------------------------------------------------|
D|---------------------------------------------------------------------------|
A|---------------------------------------------------------------------------|
E|---------------------------------------------------------------------------|

[9:18]                      Repeat x2                         *Filler
e|----------------------------------------------------------|-19-19-19-17-17-17-------|
B|---17------------18------------17-----------18------------|------------------20(x6)-|
G|-----17-17-17-17---17-17-17-17---17-17-17-17--17-17-17-17-|-------------------------|
D|----------------------------------------------------------|-------------------------|
A|----------------------------------------------------------|-------------------------|
E|----------------------------------------------------------|-------------------------|

                                                              Repeat x8
e|--------------------------------------------------------|-------------------|
B|---15-----------15-----------18-----------18------------|-------------------|
G|-----16-16-16-16--16-16-16-16--16-16-16-16--16-16-16-16-|-17-16-16----------|
D|--------------------------------------------------------|-------------------|
A|--------------------------------------------------------|-------------------|
E|--------------------------------------------------------|-------------------|

e|---------------------------------------------------------------------------|
B|-----17!-15!---------17!-15!----------18!-17!-15!-----18!-17!-15!----------|
G|-------------17!-12!---------17!-12!--------------14!------------14!-------|
D|---------------------------------------------------------------------------|
A|---------------------------------------------------------------------------|
E|---------------------------------------------------------------------------|

[11:07]                                                         End on:
e|-----------------------------------------------------------|--------------------|
B|-----------------------------------------------------------|-18!17!18!---20-20~-|
G|---14(x6)-16(x6)-17(x6)-19(x6)-16(x6)-17(x6)-19(x6)-21(x6)-|--------------------|
D|-----------------------------------------------------------|--------------------|
A|-----------------------------------------------------------|--------------------|
E|-----------------------------------------------------------|--------------------|

omg the epic-ness. please send emails/comments on any fixes/suggestions/things that i 
cuz id like to know that too.
Добавлено: 20.07.2012
Другие материалы по этой песне:

Страница создана 20.07.2012
http://primanota.ru/explosions-in-the-sky/its-natural-to-be-afraid-chords.htm
Привет, Гость.
Предлагаем пройти революционный курс по гитаре.
Подарок от PrimaNota.Ru, забирай!