PrimaNota.ru - самый крупный в мире бесплатный архив песенных текстов, аккордов, табулатур и нот


Entombed - Lights Out - таба, видео

Регистрация Запомнить меня
Войти через:  Facebook Google Twitter Vk Yandex Mail.ru

Entombed - Lights Out - таба, видео

Печатать
Просмотров: 105
Band- Entombed
Song- Lights Out

Tune down to C (down 2 whole steps)

h/p = hammer on/pull off
/ \ = slide up/down
b/r = bend/release
. = palm mute
x\ = pick slide/scrape

Intro x2
e|---------------------------------------------------------|
B|---------------------------------------------------------|
G|---------------------------------------------------------|
D|---------------------------------------------------------|
A|---------------------5---2-----------------------5---2---|
E|-3h4--3h4--3h4--3h4--3---0---3h4--3h4--3h4--3h4--3---0---|
1st 2nd
e|----------------------------------------------------------------|---|---|
B|----------------------------------------------------------------|---|---|
G|----------------------------------------------------------------|---|---|
D|----------------------------------------------------------------|---|---|
A|---------------------------5---2---2-5-2---x\-2-5-2-------4-4br-|---|---|
E|-0-3-4-3h4--3h4--3h4--3h4--3---0---0-3-0---x\-0-3-0---0-3-------|-3-|-4-|

Verse x3
e|---------------------------------------------------|
B|---------------------------------------------------|
G|---------------------------------------------------|
D|---------------------------------------------------|
A|-5--5--5--5--5--5--5----5-6--6--6--6--6--6--6----6-|
E|-3--3--3--3--3--3--3--0-3-4--4--4--4--4--4--4--0-4-|
x1
e|----------------------------|
B|----------------------------|
G|----------------------------|
D|----------------------------|
A|-5--5--5--5--5--5--5----5-6-|
E|-3--3--3--3--3--3--3--0-3-4-|

Chorus x3 x1
e|-----------------------------|-----------------------------|
B|-----------------------------|-----------------------------|
G|-----------------------------|-----------------------------|
D|-----------------------------|---------------6--6-4--------|
A|-6--6-2--4--5--6--6-2--5-4-2-|-6--6-2--4--5----------6-4-2-|
E|-4--4----------4--4----------|-4--4------------------------|

Fill 1 (middle of 2nd & 3rd Verses)
e|---44--44--44--4------|
B|---44--44--44--43p2p0-|
G|-6b--6b--6b--6b-------|
D|----------------------|
A|----------------------|
E|----------------------|

Fill 2 (after 2nd Verse)
e|-----------------|
B|-----------------|
G|-----------------|
D|-----------------|
A|-6-6-6-6-6-6-6-6-|
E|-4-4-4-4-4-4-4-4-|
. . . . . . . .
gradually release muting.

Pre-Solo/Solo Backing Pt.1
e|-----------------------|
B|-----------------------|
G|-----------------------|
D|----4------------------|
A|-5--2--6-6-6-6-6-6-6-6-|
E|-3-----4-4-4-4-4-4-4-4-|

Solo Backing Pt.2
e|-------------------------------------|
B|-------------------------------------|
G|-------------------------------------|
D|-------------------------------------|
A|-7/99999997/999999912-9-12--12-12-12-|
E|-5/77777775/777777710-7-10--10-10-10-|

Solo Backing Pt.3
e|--------------------------------------------|
B|--------------------------------------------|
G|--------------------------------------------|
D|-9-7-9-9-12-9-13-13131313131313131313131313-|
A|-7-5-7-7-10-7-11-11111111111111111111111111-|
E|--------------------------------------------|

Solo Backing End
e|---------------------------------------------------------------|
B|--------------7h9--7h9--7h9--7h9--11h12--11h12---14h15--14h15--|Lead
G|---------------------------------------------------------------|
D|-9-7-9-9-12-9-13-----------------/16------------/19------------|
A|-7-5-7-7-10-7-11-----------------/14------------/17------------|Rhythm
E|---------------------------------------------------------------|

Fill 3 (after 3rd Verse)
e|-----------------8--5----|
B|-----------------8b-8b---|
G|-------------------------|
D|-------------------------|
A|-6-6-6-6-6-6-6-6---------|
E|-4-4-4-4-4-4-4-4---------|
. . . . . . . .
gradually release muting.

Coda (after last bar of last chorus)
e|------------------------------------------------|
B|------------------------------------------------|
G|------------------------------------------------|
D|-6--6-4--------6--6-4----------4----------------|
A|---------6-4-2--------6-4-2-5--2--6-------66666-|
E|----------------------------3-----4-------44444-|
Добавлено: 28.07.2012
Другие материалы по этой песне:
  • Аккорды и текст

Страница создана 28.07.2012
http://primanota.ru/entombed/lights-out-chords.htm
Привет, Гость.
Предлагаем пройти революционный курс по гитаре.
Подарок от PrimaNota.Ru, забирай!