PrimaNota.ru - самый крупный в мире бесплатный архив песенных текстов, аккордов, табулатур и нот


Entombed - Night Of The Vampire Live - бас-таба, видео

Регистрация Запомнить меня
Войти через:  Facebook Google Twitter Vk Yandex Mail.ru

Entombed - Night Of The Vampire Live - бас-таба, видео

Печатать
Просмотров: 108
Уроки эстрадного вокала в Санкт-Петербурге
As recorded by Entombed
(From the 2004 Album UNREAL ESTATE)

Transcribed by The Foreverlorn
	

Words and Music by Roky Eriksson
Arranged by Entombed

Gtr I (C F Bb Eb) - 'Untitled'

   Intro
    Q=120
   4/4
    Gtr I
    W          Q  +E. S Q  Q    W          E E E E E E E E
||-----------|----------------|----------|-------------------||
||o----------|----------------|----------|------------------o||
||o----------|-3--(3)-5-3-----|----------|------------------o||
||--0--------|-------------3--|-5--------|-7-7-5-5-3-3-2-2---||


   Chorus
    H.      E E   H.      E E   W          E E E E E E E E   4x
||--------------|-------------|----------|-------------------||
||o-------------|-------------|----------|------------------o||
||o-------------|---------0-2-|-3--------|-2-2-0-0----------o||
||--0-------0-2-|-3-----------|----------|---------3-3-2-2---||


 Verse
  Q  E E Q  E E   Q  E E Q  E E   Q  E E H      E E E E E E E E
|---------------|---------------|-------------|-----------------|
|---------------|---------------|-------------|-----------------|
|---------------|-----------0-2-|-3--x-3-3----|-2-2-0-0---------|
|-0--x-0-0--0-2-|-3--x-3-3------|-------------|---------3-3-2-2-|


   Chorus
    H.      E E   H.      E E   W          E E E E E E E E   4x
||--------------|-------------|----------|-------------------||
||o-------------|-------------|----------|------------------o||
||o-------------|---------0-2-|-3--------|-2-2-0-0----------o||
||--0-------0-2-|-3-----------|----------|---------3-3-2-2---||


 Verse
  Q=120
  $
  Q  E E Q  E E   Q  E E Q  E E   Q  E E H      E E E E E E E E
|---------------|---------------|-------------|-----------------|
|---------------|---------------|-------------|-----------------|
|---------------|-----------0-2-|-3--x-3-3----|-2-2-0-0---------|
|-0--x-0-0--0-2-|-3--x-3-3------|-------------|---------3-3-2-2-|


   Chorus
                                                    To Coda
    H.      E E   H.      E E   W          E E E E E E E E
||--------------|-------------|----------|-------------------||
||o-------------|-------------|----------|------------------o||
||o-------------|---------0-2-|-3--------|-2-2-0-0----------o||
||--0-------0-2-|-3-----------|----------|---------3-3-2-2---||


 Breakdown
  Q=135
  W          +H     Q  Q
|----------|--------------|
|----------|--------------|
|----------|--------3--2--|
|-0--------|-(0)----------|


 Interlude
     |-3-|    |-3-|      |-3-| |-3-| |-3-|      |-3-|    |-3-|
  q  E E E q  E E E   q  E E E E E E E E E   q  E E E q  E E E
|-------------------|----------------------|-------------------|
|-------------------|----------------------|-------------------|
|-------------------|----------------------|-3--3-3-3-3--3-3-3-|
|-0--0-0-0-0--0-0-0-|-0--0-0-0-0-0-0-0-0-0-|-------------------|


     |-3-| |-3-| |-3-|      |-3-|    |-3-|      |-3-| |-3-| |-3-|
  q  E E E E E E E E E   q  E E E q  E E E   q  E E E E E E E E E
|----------------------|-------------------|-----------------------|
|----------------------|-------------------|-----------------------|
|-3--3-3-3-3-3-3-3-3-3-|-5--5-5-5-5--5-5-5-|-5--5-5-5-5-5-5-5-5-5--|
|----------------------|-------------------|-----------------------|


       |-3-|    |-3-|      |-3-| |-3-| |-3-|      |-3-|    |-3-|
    q  E E E q  E E E   q  E E E E E E E E E   q  E E E q  E E E
||--------------------|----------------------|--------------------|
||o-------------------|----------------------|--------------------|
||o-7--7-7-7-7--7-7-7-|-7--7-7-7-7-7-7-7-7-7-|-3--3-3-3-3--3-3-3--|
||--------------------|----------------------|--------------------|


                           H.=H
     |-3-| |-3-| |-3-|                   |-3-| |-3-|
  q  E E E E E E E E E     Q  Q  Q  Q    Q Q Q Q Q Q
|-----------------------||-------------|-------------|
|----------------------o||-------------|-------------|
|-5--5-5-5-5-5-5-5-5-5-o||-------------|-7-7-7-7-7-7-|
|-----------------------||-0--0--0--0--|-------------|


   Chorus
    Q=120
                                               D.S. al Coda
    H.      E E   H.      E E   W          E E E E E E E E   4x
||--------------|-------------|----------|-------------------||
||o-------------|-------------|----------|------------------o||
||o-------------|---------0-2-|-3--------|-2-2-0-0----------o||
||--0-------0-2-|-3-----------|----------|---------3-3-2-2---||


   Outro
    &
    H.      E E   H.      E E   H    +E  E +E  E   E E E E E E E E   6x
||--------------|-------------|------------------|-------------------||
||o-------------|-------------|------------------|------------------o||
||o-------------|---------0-2-|-3----(3)-5-(5)-3-|-2-2-0-0----------o||
||--0-------0-2-|-3-----------|------------------|---------3-3-2-2---||


   Out-Solo
    H.      E E   H.      E E
||--------------|-------------|
||o-------------|-------------|
||o-------------|---------0-2-|
||--0-------0-2-|-3-----------|


  H    +E  E +E  E   E E E E E E E E  4x W
|------------------|------------------||------*|
|------------------|-----------------o||------*|
|-3----(3)-5-(5)-3-|-2-2-0-0---------o||------*|
|------------------|---------3-3-2-2--||-0----*|



Duration Legend
---------------
W - whole; H - half; Q - quarter; E - 8th; S - 16th; T - 32nd; X - 64th; a - acciaccatura
+ - note tied to previous; . - note dotted; .. - note double dotted
Uncapitalized letters represent notes that are staccato (1/2 duration)
Irregular groupings are notated above the duration line
Duration letters will always appear directly above the note/fret number it represents the
duration for.  Duration letters with no fret number below them represent rests.  Multi-
bar rests are notated in the form Wxn, where n is the number of bars to rest for.  Low
melody durations appear below the staff

Tablature Legend
----------------
 h   - hammer-on
 p   - pull-off
 b   - bend
 pb  - pre-bend
 r   - bend release (if no number after the r, then release immediately)
 /\  - slide into or out of (from/to "nowhere")
 s   - legato slide
 S   - shift slide
 - natural harmonic
[n]  - artificial harmonic
n(n) - tapped harmonic
 ~   - vibrato
 tr  - trill
 T   - tap
 TP  - trem. picking
 PM  - palm muting
\n/  - tremolo bar dip; n = amount to dip
 \n  - tremolo bar down
 n/  - tremolo bar up
/n\  - tremolo bar inverted dip
 =   - hold bend; also acts as connecting device for hammers/pulls
 <> - volume swell (louder/softer)
 x   - on rhythm slash represents muted slash
 o   - on rhythm slash represents single note slash

Misc Legend
-----------
 |  - bar
||  - double bar
||o - repeat start
o|| - repeat end
*|  - double bar (ending)
 :  - bar (freetime)
 $  - Segno
 &  - Coda
Tempo markers -  = BPM(8/16=s8/s16), where s8 = swing 8ths, s16 = swing 16ths

Добавлено: 07.06.2012
Другие материалы по этой песне:

Страница создана 11.03.2012
http://primanota.ru/entombed/night-of-the-vampire-live-chords.htm
Привет, Гость.
Предлагаем пройти революционный курс по гитаре.
Подарок от PrimaNota.Ru, забирай!